  0
SECTION
  2
HEADER
  9
$ACADVER
  1
AC1009
  9
$INSBASE
 10
0.0
 20
0.0
 30
0.0
  9
$EXTMIN
 10
-444.7935243309289
 20
-688.10956819777812
 30
-0.0015258207003583
  9
$EXTMAX
 10
455.2614073097597
 20
650.04075378504137
 30
0.0000000349246037
  9
$LIMMIN
 10
0.0
 20
0.0
  9
$LIMMAX
 10
0.0
 20
0.0
  9
$ORTHOMODE
 70
     0
  9
$REGENMODE
 70
     1
  9
$FILLMODE
 70
     1
  9
$QTEXTMODE
 70
     0
  9
$MIRRTEXT
 70
     1
  9
$DRAGMODE
 70
     2
  9
$LTSCALE
 40
25.399999999999999
  9
$OSMODE
 70
   167
  9
$ATTMODE
 70
     1
  9
$TEXTSIZE
 40
0.0
  9
$TRACEWID
 40
1.0
  9
$TEXTSTYLE
  7
STANDARD
  9
$CLAYER
  8
DATA
  9
$CELTYPE
  6
CONTINUOUS
  9
$CECOLOR
 62
   256
  9
$DIMSCALE
 40
1.0
  9
$DIMASZ
 40
0.18
  9
$DIMEXO
 40
0.0625
  9
$DIMDLI
 40
0.38
  9
$DIMRND
 40
0.0
  9
$DIMDLE
 40
0.0
  9
$DIMEXE
 40
0.18
  9
$DIMTP
 40
0.0
  9
$DIMTM
 40
0.0
  9
$DIMTXT
 40
0.18
  9
$DIMCEN
 40
0.09
  9
$DIMTSZ
 40
0.0
  9
$DIMTOL
 70
     0
  9
$DIMLIM
 70
     0
  9
$DIMTIH
 70
     1
  9
$DIMTOH
 70
     1
  9
$DIMSE1
 70
     0
  9
$DIMSE2
 70
     0
  9
$DIMTAD
 70
     0
  9
$DIMZIN
 70
     0
  9
$DIMBLK
  1

  9
$DIMASO
 70
     1
  9
$DIMSHO
 70
     1
  9
$DIMPOST
  1

  9
$DIMAPOST
  1

  9
$DIMALT
 70
     0
  9
$DIMALTD
 70
     2
  9
$DIMALTF
 40
25.399999999999999
  9
$DIMLFAC
 40
1.0
  9
$DIMTOFL
 70
     0
  9
$DIMTVP
 40
0.0
  9
$DIMTIX
 70
     0
  9
$DIMSOXD
 70
     0
  9
$DIMSAH
 70
     0
  9
$DIMBLK1
  1

  9
$DIMBLK2
  1

  9
$DIMSTYLE
  2
STANDARD
  9
$DIMCLRD
 70
     0
  9
$DIMCLRE
 70
     0
  9
$DIMCLRT
 70
     0
  9
$DIMTFAC
 40
1.0
  9
$DIMGAP
 40
0.09
  9
$LUNITS
 70
     2
  9
$LUPREC
 70
     4
  9
$SKETCHINC
 40
0.1
  9
$FILLETRAD
 40
0.0
  9
$AUNITS
 70
     0
  9
$AUPREC
 70
     0
  9
$MENU
  1
acad
  9
$ELEVATION
 40
0.0
  9
$PELEVATION
 40
0.0
  9
$THICKNESS
 40
0.0
  9
$LIMCHECK
 70
     0
  9
$BLIPMODE
 70
     0
  9
$CHAMFERA
 40
0.0
  9
$CHAMFERB
 40
0.0
  9
$SKPOLY
 70
     0
  9
$TDCREATE
 40
2453187.8180092592
  9
$TDUPDATE
 40
2453187.8375453819
  9
$TDINDWG
 40
0.0001812037
  9
$TDUSRTIMER
 40
0.0001810185
  9
$USRTIMER
 70
     1
  9
$ANGBASE
 50
0.0
  9
$ANGDIR
 70
     0
  9
$PDMODE
 70
     1
  9
$PDSIZE
 40
-2.0
  9
$PLINEWID
 40
0.0
  9
$COORDS
 70
     0
  9
$SPLFRAME
 70
     0
  9
$SPLINETYPE
 70
     6
  9
$SPLINESEGS
 70
     8
  9
$ATTDIA
 70
     0
  9
$ATTREQ
 70
     1
  9
$HANDLING
 70
     1
  9
$HANDSEED
  5
F0D
  9
$SURFTAB1
 70
     6
  9
$SURFTAB2
 70
     6
  9
$SURFTYPE
 70
     6
  9
$SURFU
 70
     6
  9
$SURFV
 70
     6
  9
$UCSNAME
  2

  9
$UCSORG
 10
0.0
 20
0.0
 30
0.0
  9
$UCSXDIR
 10
1.0
 20
0.0
 30
0.0
  9
$UCSYDIR
 10
0.0
 20
1.0
 30
0.0
  9
$PUCSNAME
  2

  9
$PUCSORG
 10
0.0
 20
0.0
 30
0.0
  9
$PUCSXDIR
 10
1.0
 20
0.0
 30
0.0
  9
$PUCSYDIR
 10
0.0
 20
1.0
 30
0.0
  9
$USERI1
 70
     0
  9
$USERI2
 70
     0
  9
$USERI3
 70
     0
  9
$USERI4
 70
     0
  9
$USERI5
 70
     0
  9
$USERR1
 40
0.0
  9
$USERR2
 40
0.0
  9
$USERR3
 40
0.0
  9
$USERR4
 40
0.0
  9
$USERR5
 40
0.0
  9
$WORLDVIEW
 70
     1
  9
$SHADEDGE
 70
     3
  9
$SHADEDIF
 70
    70
  9
$TILEMODE
 70
     1
  9
$MAXACTVP
 70
    16
  9
$PLIMCHECK
 70
     0
  9
$PEXTMIN
 10
1.0000000000000000E+020
 20
1.0000000000000000E+020
 30
1.0000000000000000E+020
  9
$PEXTMAX
 10
-1.0000000000000000E+020
 20
-1.0000000000000000E+020
 30
-1.0000000000000000E+020
  9
$PLIMMIN
 10
0.0
 20
0.0
  9
$PLIMMAX
 10
12.0
 20
9.0
  9
$UNITMODE
 70
     0
  9
$VISRETAIN
 70
     0
  9
$PLINEGEN
 70
     1
  9
$PSLTSCALE
 70
     0
  0
ENDSEC
  0
SECTION
  2
TABLES
  0
TABLE
  2
VPORT
 70
     2
  0
VPORT
  2
*ACTIVE
 70
     0
 10
0.0
 20
0.0
 11
1.0
 21
1.0
 12
5.2339414894154279
 22
-19.034407206368311
 13
0.0
 23
0.0
 14
1.0
 24
1.0
 15
0.0
 25
0.0
 16
0.0
 26
0.0
 36
1.0
 17
0.0
 27
0.0
 37
0.0
 40
1348.7846291773851
 41
1.5994694960212199
 42
50.0
 43
0.0
 44
0.0
 50
0.0
 51
0.0
 71
     0
 72
   100
 73
     1
 74
     1
 75
     0
 76
     0
 77
     0
 78
     0
  0
ENDTAB
  0
TABLE
  2
LTYPE
 70
    11
  0
LTYPE
  2
CONTINUOUS
 70
     0
  3
Solid line
 72
    65
 73
     0
 40
0.0
  0
ENDTAB
  0
TABLE
  2
LAYER
 70
     6
  0
LAYER
  2
0
 70
     0
 62
     7
  6
CONTINUOUS
  0
LAYER
  2
DATA
 70
     0
 62
     7
  6
CONTINUOUS
  0
LAYER
  2
DEFPOINTS
 70
     0
 62
     7
  6
CONTINUOUS
  0
LAYER
  2
HIBINO-BASE
 70
     0
 62
     7
  6
CONTINUOUS
  0
LAYER
  2
SPEC
 70
     0
 62
     7
  6
CONTINUOUS
  0
LAYER
  2
DIMNSIONS
 70
     0
 62
     7
  6
CONTINUOUS
  0
ENDTAB
  0
TABLE
  2
STYLE
 70
     3
  0
STYLE
  2
STANDARD
 70
     0
 40
0.0
 41
1.0
 50
0.0
 71
     0
 42
0.0
  3
txt
  4
BIGFONT.SHX
  0
ENDTAB
  0
TABLE
  2
VIEW
 70
     0
  0
ENDTAB
  0
TABLE
  2
UCS
 70
     0
  0
ENDTAB
  0
TABLE
  2
APPID
 70
     1
  0
APPID
  2
ACAD
 70
     0
  0
ENDTAB
  0
TABLE
  2
DIMSTYLE
 70
     1
  0
DIMSTYLE
  2
STANDARD
 70
     0
  3

  4

  5

  6

  7

 40
1.0
 41
0.18
 42
0.0625
 43
0.38
 44
0.18
 45
0.0
 46
0.0
 47
0.0
 48
0.0
140
0.18
141
0.09
142
0.0
143
25.399999999999999
144
1.0
145
0.0
146
1.0
147
0.09
 71
     0
 72
     0
 73
     1
 74
     1
 75
     0
 76
     0
 77
     0
 78
     0
170
     0
171
     2
172
     0
173
     0
174
     0
175
     0
176
     0
177
     0
178
     0
  0
ENDTAB
  0
ENDSEC
  0
SECTION
  2
BLOCKS
  0
BLOCK
  8
0
  2
$MODEL_SPACE
 70
     0
 10
0.0
 20
0.0
 30
0.0
  3
$MODEL_SPACE
  1

  0
ENDBLK
  5
924
  8
0
  0
BLOCK
 67
     1
  8
0
  2
$PAPER_SPACE
 70
     0
 10
0.0
 20
0.0
 30
0.0
  3
$PAPER_SPACE
  1

  0
ENDBLK
  5
920
 67
     1
  8
0
  0
ENDSEC
  0
SECTION
  2
ENTITIES
  0
LINE
  5
2E
  8
HIBINO-BASE
  6
CONTINUOUS
 62
     7
 10
-444.76606060606048
 20
650.0
 30
0.0
 11
455.23393939393929
 21
650.0
 31
0.0
  0
LINE
  5
2F
  8
HIBINO-BASE
  6
CONTINUOUS
 62
     7
 10
455.23393939393929
 20
-650.0
 30
0.0
 11
-444.76606060606048
 21
-650.0
 31
0.0
  0
LINE
  5
30
  8
HIBINO-BASE
  6
CONTINUOUS
 62
     7
 10
-444.76606060606048
 20
-650.0
 30
0.0
 11
-444.76606060606048
 21
650.0
 31
0.0
  0
TEXT
  5
31
  8
HIBINO-BASE
 62
     7
 10
-408.84606060606041
 20
-682.04338899999993
 30
0.0
 40
18.00022089843749
  1
Hibino Corporation
 41
0.8
 11
-408.84606060606041
 21
-664.04316810156229
 31
0.0
 73
     3
  0
LINE
  5
32
  8
HIBINO-BASE
  6
CONTINUOUS
 62
     7
 10
455.23393939393929
 20
650.0
 30
0.0
 11
455.23393939393929
 21
-650.0
 31
0.0
  0
LINE
  5
33
  8
HIBINO-BASE
  6
CONTINUOUS
 62
     7
 10
5.2339393939393926
 20
-537.49999999999989
 30
0.0
 11
455.23393939393929
 21
-537.49999999999989
 31
0.0
  0
LINE
  5
34
  8
HIBINO-BASE
  6
CONTINUOUS
 62
     7
 10
5.2339393939393926
 20
-650.0
 30
0.0
 11
5.2339393939393926
 21
-537.49999999999989
 31
0.0
  0
TEXT
  5
35
  8
HIBINO-BASE
 62
     7
 10
9.7339393939393943
 20
-550.04346666666652
 30
0.0
 40
8.1442057291666661
  1
NOTE
 41
0.8
 11
9.7339393939393943
 21
-541.89926093749978
 31
0.0
 73
     3
  0
LINE
  5
36
  8
HIBINO-BASE
  6
CONTINUOUS
 62
     7
 10
180.23393939393941
 20
-650.0
 30
0.0
 11
180.23393939393941
 21
-537.49999999999989
 31
0.0
  0
TEXT
  5
37
  8
HIBINO-BASE
 62
     7
 10
184.73393939393941
 20
-550.04346666666652
 30
0.0
 40
8.1442057291666661
  1
TITLE
 41
0.8
 11
184.73393939393941
 21
-541.89926093749978
 31
0.0
 73
     3
  0
TEXT
  5
38
  8
HIBINO-BASE
 62
     7
 10
255.57588939393929
 20
-682.04338899999993
 30
0.0
 40
18.00022089843749
  1
ヒビノ株式会社
 41
0.8
 11
255.57588939393929
 21
-664.04316810156229
 31
0.0
 73
     3
  0
LINE
  5
39
  8
HIBINO-BASE
  6
CONTINUOUS
 62
     7
 10
5.2339393939393926
 20
-599.99999999999989
 30
0.0
 11
455.23393939393929
 21
-599.99999999999989
 31
0.0
  0
TEXT
  5
3A
  8
HIBINO-BASE
 62
     7
 10
247.23393939393941
 20
-612.26186666666649
 30
0.0
 40
8.1442057291666661
  1
DRAWN
 41
0.8
 11
247.23393939393941
 21
-604.11766093749975
 31
0.0
 73
     3
  0
TEXT
  5
3B
  8
HIBINO-BASE
 62
     7
 10
122.23393939393939
 20
-612.26186666666649
 30
0.0
 40
8.1442057291666661
  1
DATE
 41
0.8
 11
122.23393939393939
 21
-604.11766093749975
 31
0.0
 73
     3
  0
TEXT
  5
3C
  8
HIBINO-BASE
 62
     7
 10
72.233939393939394
 20
-612.26186666666649
 30
0.0
 40
8.1442057291666661
  1
SCALE
 41
0.8
 11
72.233939393939394
 21
-604.11766093749975
 31
0.0
 73
     3
  0
TEXT
  5
3D
  8
HIBINO-BASE
 62
     7
 10
184.73393939393941
 20
-612.26186666666649
 30
0.0
 40
8.1442057291666661
  1
DESIGN
 41
0.8
 11
184.73393939393941
 21
-604.11766093749975
 31
0.0
 73
     3
  0
TEXT
  5
3E
  8
HIBINO-BASE
 62
     7
 10
372.23393939393929
 20
-612.26186666666649
 30
0.0
 40
8.1442057291666661
  1
DRAWING NO.
 41
0.8
 11
372.23393939393929
 21
-604.11766093749975
 31
0.0
 73
     3
  0
TEXT
  5
3F
  8
HIBINO-BASE
 62
     7
 10
309.73393939393929
 20
-612.26186666666649
 30
0.0
 40
8.1442057291666661
  1
CHECK
 41
0.8
 11
309.73393939393929
 21
-604.11766093749975
 31
0.0
 73
     3
  0
LINE
  5
40
  8
HIBINO-BASE
  6
CONTINUOUS
 62
     7
 10
77.108939393939366
 20
-643.75
 30
0.0
 11
95.858939393939394
 21
-624.99999999999989
 31
0.0
  0
TEXT
  5
41
  8
HIBINO-BASE
 62
     7
 10
77.394846838830588
 20
-633.52347858749306
 30
0.0
 40
9.5015733506944446
  1
1
 41
0.8
 11
77.394846838830588
 21
-624.0219052367986
 31
0.0
 73
     3
  0
LINE
  5
42
  8
HIBINO-BASE
  6
CONTINUOUS
 62
     7
 10
67.73393939393938
 20
-650.0
 30
0.0
 11
67.73393939393938
 21
-599.99999999999989
 31
0.0
  0
LINE
  5
43
  8
HIBINO-BASE
  6
CONTINUOUS
 62
     7
 10
117.73393939393939
 20
-650.0
 30
0.0
 11
117.73393939393939
 21
-599.99999999999989
 31
0.0
  0
LINE
  5
44
  8
HIBINO-BASE
  6
CONTINUOUS
 62
     7
 10
242.73393939393929
 20
-599.99999999999989
 30
0.0
 11
242.73393939393929
 21
-650.0
 31
0.0
  0
LINE
  5
45
  8
HIBINO-BASE
  6
CONTINUOUS
 62
     7
 10
367.73393939393929
 20
-599.99999999999989
 30
0.0
 11
367.73393939393929
 21
-650.0
 31
0.0
  0
LINE
  5
46
  8
HIBINO-BASE
  6
CONTINUOUS
 62
     7
 10
305.23393939393929
 20
-650.0
 30
0.0
 11
305.23393939393929
 21
-599.99999999999989
 31
0.0
  0
TEXT
  5
47
  8
HIBINO-BASE
 62
     7
 10
122.0166393939394
 20
-637.19871111111115
 30
0.0
 40
9.5015733506944446
  1
'04.6.
 41
0.8
 11
122.0166393939394
 21
-627.69713776041669
 31
0.0
 73
     3
  0
TEXT
  5
48
  8
HIBINO-BASE
 62
     7
 10
91.759394409684774
 20
-642.89847858749306
 30
0.0
 40
9.5015733506944446
  1
5
 41
0.8
 11
91.759394409684774
 21
-633.3969052367986
 31
0.0
 73
     3
  0
TEXT
  5
49
  8
HIBINO-BASE
 62
     7
 10
24.65060606060614
 20
-640.11999999999989
 30
0.0
 40
16.288411458333329
  1
A4
 41
0.8
 11
24.65060606060614
 21
-623.83158854166652
 31
0.0
 73
     3
  0
TEXT
  5
4A
  8
HIBINO-BASE
 62
     7
 10
10.02560606060606
 20
-613.09727499999985
 30
0.0
 40
8.1442057291666661
  1
PAPER SIZE
 41
0.8
 11
10.02560606060606
 21
-604.95306927083334
 31
0.0
 73
     3
  0
TEXT
  5
4B
  8
HIBINO-BASE
 62
     7
 10
-391.67759712755287
 20
-624.98759712755282
 30
0.0
 40
8.1442057291666661
  1
仕様および外観は予告なく変更されることがありますので、ご了承ください。
 41
0.8
 11
-391.67759712755287
 21
-616.84339139838619
 31
0.0
 73
     3
  0
LINE
  5
4C
  8
SPEC
  6
CONTINUOUS
 62
     7
 10
-399.942780603872
 20
600.03202521605965
 30
0.0
 11
337.55721939612789
 21
600.03202521605965
 31
0.0
  0
LINE
  5
4D
  8
SPEC
  6
CONTINUOUS
 62
     7
 10
-399.942780603872
 20
581.28202521605965
 30
0.0
 11
337.55721939612789
 21
581.28202521605965
 31
0.0
  0
LINE
  5
4E
  8
SPEC
  6
CONTINUOUS
 62
     7
 10
-399.942780603872
 20
506.28202521605971
 30
0.0
 11
337.55721939612789
 21
506.28202521605971
 31
0.0
  0
LINE
  5
4F
  8
SPEC
  6
CONTINUOUS
 62
     7
 10
-399.942780603872
 20
525.03202521605965
 30
0.0
 11
337.55721939612789
 21
525.03202521605965
 31
0.0
  0
LINE
  5
50
  8
SPEC
  6
CONTINUOUS
 62
     7
 10
-399.942780603872
 20
543.78202521605965
 30
0.0
 11
337.55721939612789
 21
543.78202521605965
 31
0.0
  0
LINE
  5
51
  8
SPEC
  6
CONTINUOUS
 62
     7
 10
-399.942780603872
 20
487.53202521605971
 30
0.0
 11
337.55721939612789
 21
487.53202521605971
 31
0.0
  0
LINE
  5
52
  8
SPEC
  6
CONTINUOUS
 62
     7
 10
-399.942780603872
 20
450.03202521605971
 30
0.0
 11
337.55721939612789
 21
450.03202521605971
 31
0.0
  0
LINE
  5
53
  8
SPEC
  6
CONTINUOUS
 62
     7
 10
-399.942780603872
 20
468.78202521605971
 30
0.0
 11
337.55721939612789
 21
468.78202521605971
 31
0.0
  0
LINE
  5
54
  8
SPEC
  6
CONTINUOUS
 62
     7
 10
-399.942780603872
 20
431.28202521605971
 30
0.0
 11
337.55721939612789
 21
431.28202521605971
 31
0.0
  0
LINE
  5
55
  8
SPEC
  6
CONTINUOUS
 62
     7
 10
-399.942780603872
 20
412.53202521605959
 30
0.0
 11
337.55721939612789
 21
412.53202521605959
 31
0.0
  0
LINE
  5
56
  8
SPEC
  6
CONTINUOUS
 62
     7
 10
-399.942780603872
 20
562.53202521605965
 30
0.0
 11
337.55721939612789
 21
562.53202521605965
 31
0.0
  0
LINE
  5
57
  8
SPEC
  6
CONTINUOUS
 62
     7
 10
-399.942780603872
 20
375.03202521605971
 30
0.0
 11
337.55721939612789
 21
375.03202521605971
 31
0.0
  0
LINE
  5
58
  8
SPEC
  6
CONTINUOUS
 62
     7
 10
-399.942780603872
 20
337.53202521605982
 30
0.0
 11
337.55721939612789
 21
337.53202521605982
 31
0.0
  0
LINE
  5
59
  8
SPEC
  6
CONTINUOUS
 62
     7
 10
-399.942780603872
 20
600.03202521605965
 30
0.0
 11
-399.942780603872
 21
318.78202521605982
 31
0.0
  0
TEXT
  5
5A
  8
SPEC
 62
     7
 10
-386.437066787003
 20
606.99837521605957
 30
0.0
 40
12.21630859375
  1
仕様
 41
0.8
 11
-386.437066787003
 21
619.21468380980957
 31
0.0
 73
     3
  0
LINE
  5
5B
  8
SPEC
  6
CONTINUOUS
 62
     7
 10
-237.44278060387279
 20
600.03202521605965
 30
0.0
 11
-237.44278060387279
 21
318.78202521605982
 31
0.0
  0
LINE
  5
5C
  8
SPEC
  6
CONTINUOUS
 62
     7
 10
337.55721939612789
 20
600.03202521605965
 30
0.0
 11
337.55721939612789
 21
318.78202521605982
 31
0.0
  0
TEXT
  5
5D
  8
SPEC
 62
     7
 10
-395.44278060387211
 20
585.22163321605967
 30
0.0
 40
9.5015562499999984
  1
形式
 41
0.8
 11
-395.44278060387211
 21
594.72318946605958
 31
0.0
 73
     3
  0
LINE
  5
5E
  8
SPEC
  6
CONTINUOUS
 62
     7
 10
-399.942780603872
 20
431.28202521605971
 30
0.0
 11
337.55721939612789
 21
431.28202521605971
 31
0.0
  0
LINE
  5
5F
  8
SPEC
  6
CONTINUOUS
 62
     7
 10
-399.942780603872
 20
431.28202521605971
 30
0.0
 11
337.55721939612789
 21
431.28202521605971
 31
0.0
  0
LINE
  5
60
  8
SPEC
  6
CONTINUOUS
 62
     7
 10
-399.942780603872
 20
393.78202521605971
 30
0.0
 11
337.55721939612789
 21
393.78202521605971
 31
0.0
  0
LINE
  5
61
  8
SPEC
  6
CONTINUOUS
 62
     7
 10
-399.942780603872
 20
356.28202521605971
 30
0.0
 11
337.55721939612789
 21
356.28202521605971
 31
0.0
  0
LINE
  5
62
  8
SPEC
  6
CONTINUOUS
 62
     7
 10
-399.942780603872
 20
318.78202521605982
 30
0.0
 11
337.55721939612789
 21
318.78202521605982
 31
0.0
  0
TEXT
  5
63
  8
SPEC
 62
     7
 10
-230.3291269831835
 20
586.31212963403254
 30
0.0
 40
9.5015733506944446
  1
ハウリング・サプレッサ
 41
0.8
 11
-230.3291269831835
 21
595.813702984727
 31
0.0
 73
     3
  0
TEXT
  5
64
  8
SPEC
 62
     7
 10
-230.0
 20
510.90458925121919
 30
0.0
 40
9.5015733506944446
  1
最大レベル　+20dBu
 41
0.8
 11
-230.0
 21
520.40616260191371
 31
0.0
 73
     3
  0
TEXT
  5
65
  8
SPEC
 62
     7
 10
-395.02864343223882
 20
548.80831824170093
 30
0.0
 40
9.5015733506944446
  1
音声入力
 41
0.8
 11
-395.02864343223882
 21
558.30989159239539
 31
0.0
 73
     3
  0
TEXT
  5
66
  8
SPEC
 62
     7
 10
-230.02067904435381
 20
548.73227483743312
 30
0.0
 40
9.5015733506944446
  1
端子・型式　XLR/標準フォ-ンジャック(3P）、電子バランス
 41
0.8
 11
-230.02067904435381
 21
558.23384818812758
 31
0.0
 73
     3
  0
TEXT
  5
67
  8
SPEC
 62
     7
 10
-230.6285906289506
 20
529.9262035069745
 30
0.0
 40
9.5015733506944446
  1
インピーダンス　50kΩ
 41
0.8
 11
-230.6285906289506
 21
539.42777685766896
 31
0.0
 73
     3
  0
TEXT
  5
68
  8
SPEC
 62
     7
 10
-230.67588415210571
 20
473.90036872103519
 30
0.0
 40
9.5015733506944446
  1
インピーダンス　120Ω
 41
0.8
 11
-230.67588415210571
 21
483.40194207172959
 31
0.0
 73
     3
  0
TEXT
  5
69
  8
SPEC
 62
     7
 10
-395.18065975427231
 20
417.38324943790042
 30
0.0
 40
9.5015733506944446
  1
周波数特性
 41
0.8
 11
-395.18065975427231
 21
426.88482278859482
 31
0.0
 73
     3
  0
TEXT
  5
6A
  8
SPEC
 62
     7
 10
-395.20458625528528
 20
398.82250584390391
 30
0.0
 40
9.5015733506944446
  1
THD＋N
 41
0.8
 11
-395.20458625528528
 21
408.32407919459831
 31
0.0
 73
     3
  0
TEXT
  5
6B
  8
SPEC
 62
     7
 10
-229.8062933551733
 20
398.88834675479382
 30
0.0
 40
9.5015733506944446
  1
0.003％（+4dBu,1kHz）
 41
0.8
 11
-229.8062933551733
 21
408.38992010548822
 31
0.0
 73
     3
  0
TEXT
  5
6C
  8
SPEC
 62
     7
 10
-395.51221053441429
 20
360.9874941560962
 30
0.0
 40
9.5015733506944446
  1
電源
 41
0.8
 11
-395.51221053441429
 21
370.4890675067906
 31
0.0
 73
     3
  0
TEXT
  5
6D
  8
SPEC
 62
     7
 10
-229.57412686385621
 20
361.05525131033812
 30
0.0
 40
9.5015733506944446
  1
AC100V、50/60Hz
 41
0.8
 11
-229.57412686385621
 21
370.55682466103258
 31
0.0
 73
     3
  0
TEXT
  5
6E
  8
SPEC
 62
     7
 10
-395.39808806976419
 20
342.77343631109977
 30
0.0
 40
9.5015733506944446
  1
消費電力
 41
0.8
 11
-395.39808806976419
 21
352.27500966179429
 31
0.0
 73
     3
  0
TEXT
  5
6F
  8
SPEC
 62
     7
 10
-230.02085978898879
 20
342.37312169469419
 30
0.0
 40
9.5015733506944446
  1
9W
 41
0.8
 11
-230.02085978898879
 21
351.87469504538859
 31
0.0
 73
     3
  0
TEXT
  5
70
  8
SPEC
 62
     7
 10
-395.3633812737512
 20
324.04559360751159
 30
0.0
 40
9.5015733506944446
  1
寸法（W x H x D）・重量　
 41
0.8
 11
-395.3633812737512
 21
333.54716695820599
 31
0.0
 73
     3
  0
TEXT
  5
71
  8
SPEC
 62
     7
 10
-229.80261756021491
 20
323.28538350115559
 30
0.0
 40
9.5015733506944446
  1
483X45X150mm（突起部含まず）、2.3Kg
 41
0.8
 11
-229.80261756021491
 21
332.78695685184999
 31
0.0
 73
     3
  0
TEXT
  5
72
  8
SPEC
 62
     7
 10
-230.02641272743281
 20
417.47705132559321
 30
0.0
 40
9.5015733506944446
  1
20Hz～20kHz（±0.5dB）
 41
0.8
 11
-230.02641272743281
 21
426.97862467628761
 31
0.0
 73
     3
  0
TEXT
  5
73
  8
SPEC
 62
     7
 10
-230.0574135789013
 20
436.28597661395031
 30
0.0
 40
9.5015733506944446
  1
24ビット、48kHz
 41
0.8
 11
-230.0574135789013
 21
445.78754996464471
 31
0.0
 73
     3
  0
TEXT
  5
74
  8
SPEC
 62
     7
 10
-395.20160142633131
 20
492.040183273926
 30
0.0
 40
9.5015733506944446
  1
音声出力
 41
0.8
 11
-395.20160142633131
 21
501.54175662462052
 31
0.0
 73
     3
  0
TEXT
  5
75
  8
SPEC
 62
     7
 10
-230.08578640207571
 20
454.9923790130847
 30
0.0
 40
9.5015733506944446
  1
最大レベル　+20dBu
 41
0.8
 11
-230.08578640207571
 21
464.49395236377921
 31
0.0
 73
     3
  0
TEXT
  5
76
  8
SPEC
 62
     7
 10
-394.64157033633683
 20
436.02896545089891
 30
0.0
 40
9.5015733506944446
  1
A/D-D/A変換
 41
0.8
 11
-394.64157033633683
 21
445.53053880159342
 31
0.0
 73
     3
  0
TEXT
  5
77
  8
SPEC
 62
     7
 10
-395.66186729149211
 20
567.05251040284793
 30
0.0
 40
9.5015733506944446
  1
チャンネル数
 41
0.8
 11
-395.66186729149211
 21
576.55408375354227
 31
0.0
 73
     3
  0
TEXT
  5
78
  8
SPEC
 62
     7
 10
-396.15561687473559
 20
379.55211514270809
 30
0.0
 40
9.5015733506944446
  1
ダイナミックレンジ
 41
0.8
 11
-396.15561687473559
 21
389.05368849340249
 31
0.0
 73
     3
  0
TEXT
  5
79
  8
SPEC
 62
     7
 10
-230.58229066107
 20
379.78390946788443
 30
0.0
 40
9.5015733506944446
  1
109dB(Aウェイト）
 41
0.8
 11
-230.58229066107
 21
389.28548281857888
 31
0.0
 73
     3
  0
TEXT
  5
7A
  8
SPEC
 62
     7
 10
-229.83405423343319
 20
566.57862433893865
 30
0.0
 40
9.5015733506944446
  1
2
 41
0.8
 11
-229.83405423343319
 21
576.08019768963322
 31
0.0
 73
     3
  0
TEXT
  5
7B
  8
SPEC
 62
     7
 10
-230.058253966367
 20
492.59951058358303
 30
0.0
 40
9.5015733506944446
  1
端子・型式　XLR/標準フォ-ンジャック(3P）、電子バランス
 41
0.8
 11
-230.058253966367
 21
502.10108393427748
 31
0.0
 73
     3
  0
TEXT
  5
7C
  8
DIMNSIONS
 62
     7
 10
-94.766060606060606
 20
-588.65255000000002
 30
0.0
 40
12.21630859375
  1
(単位：mm)
 41
0.8
 11
-94.766060606060606
 21
-576.43624140625002
 31
0.0
 73
     3
  0
LINE
  5
7D
  8
DIMNSIONS
  6
CONTINUOUS
 62
     7
 10
-389.3575431927942
 20
-279.84638818737108
 30
0.0
 11
-410.8575431927942
 21
-279.84638818737108
 31
0.0
  0
LINE
  5
7E
  8
DIMNSIONS
  6
CONTINUOUS
 62
     7
 10
-389.3575431927942
 20
-130.3463881873717
 30
0.0
 11
-410.8575431927942
 21
-130.3463881873717
 31
0.0
  0
LINE
  5
7F
  8
DIMNSIONS
  6
CONTINUOUS
 62
     7
 10
-400.85754319279408
 20
-279.84638818737108
 30
0.0
 11
-400.85754319279408
 21
-130.3463881873717
 31
0.0
  0
LINE
  5
80
  8
DIMNSIONS
  6
CONTINUOUS
 62
     7
 10
-400.85754319279408
 20
-279.84638818737108
 30
0.0
 11
-404.20774216854528
 21
-267.34327539440238
 31
0.0
  0
LINE
  5
81
  8
DIMNSIONS
  6
CONTINUOUS
 62
     7
 10
-400.85754319279408
 20
-279.84638818737108
 30
0.0
 11
-397.507344217043
 21
-267.34327539440238
 31
0.0
  0
LINE
  5
82
  8
DIMNSIONS
  6
CONTINUOUS
 62
     7
 10
-400.85754319279408
 20
-130.3463881873717
 30
0.0
 11
-397.507344217043
 21
-142.84950098034039
 31
0.0
  0
LINE
  5
83
  8
DIMNSIONS
  6
CONTINUOUS
 62
     7
 10
-400.85754319279408
 20
-130.3463881873717
 30
0.0
 11
-404.20774216854528
 21
-142.84950098034039
 31
0.0
  0
TEXT
  5
84
  8
DIMNSIONS
 62
     7
 10
-404.0630987483496
 20
-217.00263902845921
 30
0.0
 40
13.57367621527778
  1
150
 50
90.0
 41
0.8
 11
-417.63677496362737
 21
-217.00263902845921
 31
0.0
 73
     3
  0
LINE
  5
85
  8
DIMNSIONS
  6
CONTINUOUS
 62
     7
 10
-389.3575431927942
 20
-279.84638818737108
 30
0.0
 11
-367.81958795106198
 21
-279.84638818737108
 31
0.0
  0
LINE
  5
86
  8
DIMNSIONS
  6
CONTINUOUS
 62
     7
 10
-389.3575431927942
 20
-130.3463881873717
 30
0.0
 11
-348.81958795106198
 21
-130.3463881873717
 31
0.0
  0
LINE
  5
87
  8
DIMNSIONS
  6
CONTINUOUS
 62
     7
 10
-367.99338283682442
 20
-279.84638818737108
 30
0.0
 11
-383.79338283682432
 21
-279.84638818737108
 31
0.0
  0
LINE
  5
88
  8
DIMNSIONS
  6
CONTINUOUS
 62
     7
 10
-367.99338283682442
 20
-276.84638818737108
 30
0.0
 11
-383.79338283682432
 21
-276.84638818737108
 31
0.0
  0
LINE
  5
89
  8
DIMNSIONS
  6
CONTINUOUS
 62
     7
 10
-373.79338283682432
 20
-276.84638818737108
 30
0.0
 11
-373.79338283682432
 21
-279.84638818737108
 31
0.0
  0
LINE
  5
8A
  8
DIMNSIONS
  6
CONTINUOUS
 62
     7
 10
-373.79338283682432
 20
-279.84638818737108
 30
0.0
 11
-373.79338283682432
 21
-304.84638818737119
 31
0.0
  0
LINE
  5
8B
  8
DIMNSIONS
  6
CONTINUOUS
 62
     7
 10
-373.79338283682432
 20
-279.84638818737108
 30
0.0
 11
-370.44318386107318
 21
-292.34950098033988
 31
0.0
  0
LINE
  5
8C
  8
DIMNSIONS
  6
CONTINUOUS
 62
     7
 10
-373.79338283682432
 20
-279.84638818737108
 30
0.0
 11
-377.14358181257558
 21
-292.34950098033988
 31
0.0
  0
LINE
  5
8D
  8
DIMNSIONS
  6
CONTINUOUS
 62
     7
 10
-373.79338283682432
 20
-276.84638818737108
 30
0.0
 11
-373.79338283682432
 21
-262.11604956124518
 31
0.0
  0
LINE
  5
8E
  8
DIMNSIONS
  6
CONTINUOUS
 62
     7
 10
-373.79338283682432
 20
-276.84638818737108
 30
0.0
 11
-377.14358181257558
 21
-264.34327539440238
 31
0.0
  0
LINE
  5
8F
  8
DIMNSIONS
  6
CONTINUOUS
 62
     7
 10
-373.79338283682432
 20
-276.84638818737108
 30
0.0
 11
-370.44318386107318
 21
-264.34327539440238
 31
0.0
  0
TEXT
  5
90
  8
DIMNSIONS
 62
     7
 10
-376.99893839238001
 20
-270.05354956124518
 30
0.0
 40
13.57367621527778
  1
3
 50
90.0
 41
0.8
 11
-390.57261460765778
 21
-270.05354956124518
 31
0.0
 73
     3
  0
LINE
  5
91
  8
DIMNSIONS
  6
CONTINUOUS
 62
     7
 10
-338.16319342737222
 20
-106.7435886442543
 30
0.0
 11
-338.16319342737222
 21
-77.250750018127874
 31
0.0
  0
LINE
  5
92
  8
DIMNSIONS
  6
CONTINUOUS
 62
     7
 10
99.836806572626813
 20
-106.7435886442543
 30
0.0
 11
99.836806572626813
 21
-77.250750018127874
 31
0.0
  0
LINE
  5
93
  8
DIMNSIONS
  6
CONTINUOUS
 62
     7
 10
-338.16319342737222
 20
-87.250750018127874
 30
0.0
 11
99.836806572626813
 21
-87.250750018127874
 31
0.0
  0
LINE
  5
94
  8
DIMNSIONS
  6
CONTINUOUS
 62
     7
 10
-338.16319342737222
 20
-87.250750018127874
 30
0.0
 11
-325.66008063440353
 21
-83.900551042376648
 31
0.0
  0
LINE
  5
95
  8
DIMNSIONS
  6
CONTINUOUS
 62
     7
 10
-338.16319342737222
 20
-87.250750018127874
 30
0.0
 11
-325.66008063440353
 21
-90.600948993879072
 31
0.0
  0
LINE
  5
96
  8
DIMNSIONS
  6
CONTINUOUS
 62
     7
 10
99.836806572626813
 20
-87.250750018127874
 30
0.0
 11
87.333693779658049
 21
-90.600948993879072
 31
0.0
  0
LINE
  5
97
  8
DIMNSIONS
  6
CONTINUOUS
 62
     7
 10
99.836806572626813
 20
-87.250750018127874
 30
0.0
 11
87.333693779658049
 21
-83.900551042376648
 31
0.0
  0
TEXT
  5
98
  8
DIMNSIONS
 62
     7
 10
-131.06944426846039
 20
-84.04519446257234
 30
0.0
 40
13.57367621527778
  1
438
 41
0.8
 11
-131.06944426846039
 21
-70.471518247294554
 31
0.0
 73
     3
  0
LINE
  5
99
  8
DIMNSIONS
  6
CONTINUOUS
 62
     7
 10
-338.16319342737222
 20
-105.9609365947292
 30
0.0
 11
-338.16319342737222
 21
-120.8535495612452
 31
0.0
  0
LINE
  5
9A
  8
DIMNSIONS
  6
CONTINUOUS
 62
     7
 10
-340.48390945468827
 20
-123.8535495612453
 30
0.0
 11
-340.48390945468827
 21
-40.853549561245273
 31
0.0
  0
LINE
  5
9B
  8
DIMNSIONS
  6
CONTINUOUS
 62
     7
 10
102.0447185995905
 20
-123.19856524416051
 30
0.0
 11
102.0447185995905
 21
-40.853549561245273
 31
0.0
  0
LINE
  5
9C
  8
DIMNSIONS
  6
CONTINUOUS
 62
     7
 10
-340.48390945468827
 20
-50.853549561245259
 30
0.0
 11
102.0447185995905
 21
-50.853549561245259
 31
0.0
  0
LINE
  5
9D
  8
DIMNSIONS
  6
CONTINUOUS
 62
     7
 10
-340.48390945468827
 20
-50.853549561245259
 30
0.0
 11
-327.98079666171952
 21
-47.503350585494047
 31
0.0
  0
LINE
  5
9E
  8
DIMNSIONS
  6
CONTINUOUS
 62
     7
 10
-340.48390945468827
 20
-50.853549561245259
 30
0.0
 11
-327.98079666171952
 21
-54.203748536996478
 31
0.0
  0
LINE
  5
9F
  8
DIMNSIONS
  6
CONTINUOUS
 62
     7
 10
102.0447185995905
 20
-50.853549561245259
 30
0.0
 11
89.541605806621817
 21
-54.203748536996478
 31
0.0
  0
LINE
  5
A0
  8
DIMNSIONS
  6
CONTINUOUS
 62
     7
 10
102.0447185995905
 20
-50.853549561245259
 30
0.0
 11
89.541605806621817
 21
-47.503350585494047
 31
0.0
  0
TEXT
  5
A1
  8
DIMNSIONS
 62
     7
 10
-131.12584626863659
 20
-47.647994005689696
 30
0.0
 40
13.57367621527778
  1
443
 41
0.8
 11
-131.12584626863659
 21
-34.074317790411932
 31
0.0
 73
     3
  0
LINE
  5
A2
  8
DIMNSIONS
  6
CONTINUOUS
 62
     7
 10
-340.48390945468827
 20
-123.8535495612452
 30
0.0
 11
-340.48390945468827
 21
-139.8535495612453
 31
0.0
  0
LINE
  5
A3
  8
DIMNSIONS
  6
CONTINUOUS
 62
     7
 10
99.836806572626813
 20
-106.7435886442542
 30
0.0
 11
99.836806572626813
 21
-120.8535495612452
 31
0.0
  0
LINE
  5
A4
  8
DIMNSIONS
  6
CONTINUOUS
 62
     7
 10
102.0447185995905
 20
-123.19856524416041
 30
0.0
 11
102.0447185995905
 21
-139.3535495612453
 31
0.0
  0
LINE
  5
A5
  8
DIMNSIONS
  6
CONTINUOUS
 62
     7
 10
-388.5
 20
-279.84638818737108
 30
0.0
 11
-410.8575431927942
 21
-279.84638818737108
 31
0.0
  0
LINE
  5
A6
  8
DIMNSIONS
  6
CONTINUOUS
 62
     7
 10
-400.85754319279408
 20
-279.84638818737108
 30
0.0
 11
-400.85754319279408
 21
-254.8463881873711
 31
0.0
  0
LINE
  5
A7
  8
DIMNSIONS
  6
CONTINUOUS
 62
     7
 10
-400.85754319279408
 20
-279.84638818737108
 30
0.0
 11
-404.20774216854528
 21
-267.34327539440238
 31
0.0
  0
LINE
  5
A8
  8
DIMNSIONS
  6
CONTINUOUS
 62
     7
 10
-400.85754319279408
 20
-279.84638818737108
 30
0.0
 11
-397.507344217043
 21
-267.34327539440238
 31
0.0
  0
LINE
  5
A9
  8
DIMNSIONS
  6
CONTINUOUS
 62
     7
 10
-381.0
 20
-130.3463881873717
 30
0.0
 11
-410.8575431927942
 21
-130.3463881873717
 31
0.0
  0
LINE
  5
AA
  8
DIMNSIONS
  6
CONTINUOUS
 62
     7
 10
-400.85754319279408
 20
-130.3463881873717
 30
0.0
 11
-400.85754319279408
 21
-155.3463881873717
 31
0.0
  0
LINE
  5
AB
  8
DIMNSIONS
  6
CONTINUOUS
 62
     7
 10
-400.85754319279408
 20
-130.3463881873717
 30
0.0
 11
-397.507344217043
 21
-142.84950098034039
 31
0.0
  0
LINE
  5
AC
  8
DIMNSIONS
  6
CONTINUOUS
 62
     7
 10
-400.85754319279408
 20
-130.3463881873717
 30
0.0
 11
-404.20774216854528
 21
-142.84950098034039
 31
0.0
  0
LINE
  5
AD
  8
DIMNSIONS
  6
CONTINUOUS
 62
     7
 10
-360.04129757352689
 20
-461.21010071801322
 30
0.0
 11
-360.04129757352689
 21
-445.0
 31
0.0
  0
LINE
  5
AE
  8
DIMNSIONS
  6
CONTINUOUS
 62
     7
 10
-360.04129757352689
 20
-452.59084550971909
 30
0.0
 11
-360.04129757352689
 21
-489.79183948601877
 31
0.0
  0
LINE
  5
AF
  8
DIMNSIONS
  6
CONTINUOUS
 62
     7
 10
122.9587024264731
 20
-452.59084550971909
 30
0.0
 11
122.9587024264731
 21
-489.79183948601877
 31
0.0
  0
LINE
  5
B0
  8
DIMNSIONS
  6
CONTINUOUS
 62
     7
 10
-360.04129757352689
 20
-479.79183948601877
 30
0.0
 11
122.9587024264731
 21
-479.79183948601877
 31
0.0
  0
LINE
  5
B1
  8
DIMNSIONS
  6
CONTINUOUS
 62
     7
 10
-360.04129757352689
 20
-479.79183948601877
 30
0.0
 11
-347.53818478055808
 21
-476.44164051026758
 31
0.0
  0
LINE
  5
B2
  8
DIMNSIONS
  6
CONTINUOUS
 62
     7
 10
-360.04129757352689
 20
-479.79183948601877
 30
0.0
 11
-347.53818478055808
 21
-483.14203846176991
 31
0.0
  0
LINE
  5
B3
  8
DIMNSIONS
  6
CONTINUOUS
 62
     7
 10
122.9587024264731
 20
-479.79183948601877
 30
0.0
 11
110.4555896335043
 21
-483.14203846176991
 31
0.0
  0
LINE
  5
B4
  8
DIMNSIONS
  6
CONTINUOUS
 62
     7
 10
122.9587024264731
 20
-479.79183948601877
 30
0.0
 11
110.4555896335043
 21
-476.44164051026758
 31
0.0
  0
TEXT
  5
B5
  8
DIMNSIONS
 62
     7
 10
-130.44754841461469
 20
-476.5862839304632
 30
0.0
 40
13.57367621527778
  1
483
 41
0.8
 11
-130.44754841461469
 21
-463.01260771518548
 31
0.0
 73
     3
  0
LINE
  5
B6
  8
DIMNSIONS
  6
CONTINUOUS
 62
     7
 10
122.9587024264731
 20
-452.59084550971909
 30
0.0
 11
122.9587024264731
 21
-445.0
 31
0.0
  0
LINE
  5
B7
  8
DIMNSIONS
  6
CONTINUOUS
 62
     7
 10
-372.0
 20
-125.3491217053529
 30
0.0
 11
-297.0
 21
-125.3491217053529
 31
0.0
  0
LINE
  5
B8
  8
DIMNSIONS
  6
CONTINUOUS
 62
     7
 10
-379.0
 20
-283.84638818737119
 30
0.0
 11
-410.8575431927942
 21
-283.84638818737119
 31
0.0
  0
LINE
  5
B9
  8
DIMNSIONS
  6
CONTINUOUS
 62
     7
 10
-379.0
 20
-279.84638818737108
 30
0.0
 11
-410.8575431927942
 21
-279.84638818737108
 31
0.0
  0
LINE
  5
BA
  8
DIMNSIONS
  6
CONTINUOUS
 62
     7
 10
-400.85754319279408
 20
-279.84638818737108
 30
0.0
 11
-400.85754319279408
 21
-283.84638818737119
 31
0.0
  0
LINE
  5
BB
  8
DIMNSIONS
  6
CONTINUOUS
 62
     7
 10
-400.85754319279408
 20
-283.84638818737119
 30
0.0
 11
-400.85754319279408
 21
-309.31944444444451
 31
0.0
  0
LINE
  5
BC
  8
DIMNSIONS
  6
CONTINUOUS
 62
     7
 10
-400.85754319279408
 20
-283.84638818737119
 30
0.0
 11
-397.507344217043
 21
-296.34950098033988
 31
0.0
  0
LINE
  5
BD
  8
DIMNSIONS
  6
CONTINUOUS
 62
     7
 10
-400.85754319279408
 20
-283.84638818737119
 30
0.0
 11
-404.20774216854528
 21
-296.34950098033988
 31
0.0
  0
LINE
  5
BE
  8
DIMNSIONS
  6
CONTINUOUS
 62
     7
 10
-400.85754319279408
 20
-279.84638818737108
 30
0.0
 11
-400.85754319279408
 21
-254.8463881873711
 31
0.0
  0
LINE
  5
BF
  8
DIMNSIONS
  6
CONTINUOUS
 62
     7
 10
-400.85754319279408
 20
-279.84638818737108
 30
0.0
 11
-404.20774216854528
 21
-267.34327539440238
 31
0.0
  0
LINE
  5
C0
  8
DIMNSIONS
  6
CONTINUOUS
 62
     7
 10
-400.85754319279408
 20
-279.84638818737108
 30
0.0
 11
-397.507344217043
 21
-267.34327539440238
 31
0.0
  0
TEXT
  5
C1
  8
DIMNSIONS
 62
     7
 10
-405.82698763723869
 20
-309.31944444444451
 30
0.0
 40
13.57367621527778
  1
4
 50
90.0
 41
0.8
 11
-419.40066385251652
 21
-309.31944444444451
 31
0.0
 73
     3
  0
LINE
  5
C2
  8
DIMNSIONS
  6
CONTINUOUS
 62
     7
 10
-379.0
 20
-283.84638818737119
 30
0.0
 11
-227.5
 21
-283.84638818737119
 31
0.0
  0
LINE
  5
C3
  8
DIMNSIONS
  6
CONTINUOUS
 62
     7
 10
-372.0
 20
-130.3463881873717
 30
0.0
 11
-410.8575431927942
 21
-130.3463881873717
 31
0.0
  0
LINE
  5
C4
  8
DIMNSIONS
  6
CONTINUOUS
 62
     7
 10
-372.0
 20
-125.3491217053529
 30
0.0
 11
-410.8575431927942
 21
-125.3491217053529
 31
0.0
  0
LINE
  5
C5
  8
DIMNSIONS
  6
CONTINUOUS
 62
     7
 10
-400.85754319279408
 20
-125.3491217053529
 30
0.0
 11
-400.85754319279408
 21
-130.3463881873717
 31
0.0
  0
LINE
  5
C6
  8
DIMNSIONS
  6
CONTINUOUS
 62
     7
 10
-400.85754319279408
 20
-130.3463881873717
 30
0.0
 11
-400.85754319279408
 21
-155.3463881873717
 31
0.0
  0
LINE
  5
C7
  8
DIMNSIONS
  6
CONTINUOUS
 62
     7
 10
-400.85754319279408
 20
-130.3463881873717
 30
0.0
 11
-397.507344217043
 21
-142.84950098034039
 31
0.0
  0
LINE
  5
C8
  8
DIMNSIONS
  6
CONTINUOUS
 62
     7
 10
-400.85754319279408
 20
-130.3463881873717
 30
0.0
 11
-404.20774216854528
 21
-142.84950098034039
 31
0.0
  0
LINE
  5
C9
  8
DIMNSIONS
  6
CONTINUOUS
 62
     7
 10
-400.85754319279408
 20
-125.3491217053529
 30
0.0
 11
-400.85754319279408
 21
-102.6805555555555
 31
0.0
  0
LINE
  5
CA
  8
DIMNSIONS
  6
CONTINUOUS
 62
     7
 10
-400.85754319279408
 20
-125.3491217053529
 30
0.0
 11
-404.20774216854528
 21
-112.84600891238409
 31
0.0
  0
LINE
  5
CB
  8
DIMNSIONS
  6
CONTINUOUS
 62
     7
 10
-400.85754319279408
 20
-125.3491217053529
 30
0.0
 11
-397.507344217043
 21
-112.84600891238409
 31
0.0
  0
TEXT
  5
CC
  8
DIMNSIONS
 62
     7
 10
-405.82698763723869
 20
-111.5
 30
0.0
 40
13.57367621527778
  1
5
 50
90.0
 41
0.8
 11
-419.40066385251652
 21
-111.5
 31
0.0
 73
     3
  0
LINE
  5
CD
  8
DIMNSIONS
  6
CONTINUOUS
 62
     7
 10
-375.30384187578659
 20
-439.74900602370019
 30
0.0
 11
-409.99887446096727
 21
-439.74900602370019
 31
0.0
  0
LINE
  5
CE
  8
DIMNSIONS
  6
CONTINUOUS
 62
     7
 10
-375.30384187578659
 20
-395.24900602370019
 30
0.0
 11
-409.99887446096727
 21
-395.24900602370019
 31
0.0
  0
LINE
  5
CF
  8
DIMNSIONS
  6
CONTINUOUS
 62
     7
 10
-399.99887446096727
 20
-439.74900602370019
 30
0.0
 11
-399.99887446096727
 21
-395.24900602370019
 31
0.0
  0
LINE
  5
D0
  8
DIMNSIONS
  6
CONTINUOUS
 62
     7
 10
-399.99887446096727
 20
-439.74900602370019
 30
0.0
 11
-403.34907343671853
 21
-427.24589323073133
 31
0.0
  0
LINE
  5
D1
  8
DIMNSIONS
  6
CONTINUOUS
 62
     7
 10
-399.99887446096727
 20
-439.74900602370019
 30
0.0
 11
-396.64867548521607
 21
-427.24589323073133
 31
0.0
  0
LINE
  5
D2
  8
DIMNSIONS
  6
CONTINUOUS
 62
     7
 10
-399.99887446096727
 20
-395.24900602370019
 30
0.0
 11
-396.64867548521607
 21
-407.75211881666888
 31
0.0
  0
LINE
  5
D3
  8
DIMNSIONS
  6
CONTINUOUS
 62
     7
 10
-399.99887446096727
 20
-395.24900602370019
 30
0.0
 11
-403.34907343671853
 21
-407.75211881666888
 31
0.0
  0
TEXT
  5
D4
  8
DIMNSIONS
 62
     7
 10
-404.96831890541171
 20
-426.3184504681447
 30
0.0
 40
13.57367621527778
  1
45
 50
90.0
 41
0.8
 11
-418.54199512068948
 21
-426.3184504681447
 31
0.0
 73
     3
  0
LINE
  5
D5
  8
DIMNSIONS
  6
CONTINUOUS
 62
     7
 10
-375.30384187578659
 20
-395.24900602370019
 30
0.0
 11
-365.30384187578659
 21
-395.24900602370019
 31
0.0
  0
LINE
  5
D6
  8
DIMNSIONS
  6
CONTINUOUS
 62
     7
 10
-375.30384187578659
 20
-439.74900602370019
 30
0.0
 11
-365.30384187578659
 21
-439.74900602370019
 31
0.0
  0
POLYLINE
  5
D7
  8
DATA
  6
CONTINUOUS
 62
     7
 66
     1
 10
0.0
 20
0.0
 30
0.0
 70
     1
  0
VERTEX
  5
943
  8
DATA
  6
CONTINUOUS
 62
     7
 10
220.0569666364668
 20
-395.85967721775569
 30
0.0
  0
VERTEX
  5
944
  8
DATA
  6
CONTINUOUS
 62
     7
 10
220.0569666364668
 20
-440.25967721775561
 30
0.0
  0
VERTEX
  5
945
  8
DATA
  6
CONTINUOUS
 62
     7
 10
369.05696663646762
 20
-440.25967721775561
 30
0.0
  0
VERTEX
  5
946
  8
DATA
  6
CONTINUOUS
 62
     7
 10
369.05696663646762
 20
-395.85967721775569
 30
0.0
  0
SEQEND
  5
947
  8
DATA
  6
CONTINUOUS
 62
     7
  0
POLYLINE
  5
DD
  8
DATA
  6
CONTINUOUS
 62
     7
 66
     1
 10
0.0
 20
0.0
 30
0.0
 70
     1
  0
VERTEX
  5
948
  8
DATA
  6
CONTINUOUS
 62
     7
 10
-360.16319342737228
 20
-276.84638818737108
 30
0.0
  0
VERTEX
  5
949
  8
DATA
  6
CONTINUOUS
 62
     7
 10
121.8368065726268
 20
-276.84638818737108
 30
0.0
  0
VERTEX
  5
94A
  8
DATA
  6
CONTINUOUS
 62
     7
 10
121.8368065726268
 20
-279.84638818737108
 30
0.0
  0
VERTEX
  5
94B
  8
DATA
  6
CONTINUOUS
 62
     7
 10
-360.16319342737228
 20
-279.84638818737108
 30
0.0
  0
SEQEND
  5
94C
  8
DATA
  6
CONTINUOUS
 62
     7
  0
ARC
  5
E3
  8
DATA
  6
CONTINUOUS
 62
     7
 10
-352.84129757352679
 20
-401.99900602370019
 30
0.0
 40
3.1999999999999882
 50
90.0
 51
270.0
  0
ARC
  5
E4
  8
DATA
  6
CONTINUOUS
 62
     7
 10
-348.24129757352688
 20
-401.99900602370019
 30
0.0
 40
3.1999999999999882
 50
270.0
 51
90.0
  0
LINE
  5
E5
  8
DATA
  6
CONTINUOUS
 62
     7
 10
-352.84129757352679
 20
-398.79900602370031
 30
0.0
 11
-348.24129757352688
 21
-398.79900602370031
 31
0.0
  0
LINE
  5
E6
  8
DATA
  6
CONTINUOUS
 62
     7
 10
-352.84129757352679
 20
-405.19900602370018
 30
0.0
 11
-348.24129757352688
 21
-405.19900602370018
 31
0.0
  0
ARC
  5
E7
  8
DATA
  6
CONTINUOUS
 62
     7
 10
112.1587024264722
 20
-401.99900602370019
 30
0.0
 40
3.1999999999999882
 50
90.0
 51
270.0
  0
ARC
  5
E8
  8
DATA
  6
CONTINUOUS
 62
     7
 10
116.7587024264721
 20
-401.99900602370019
 30
0.0
 40
3.1999999999999882
 50
270.0
 51
90.0
  0
LINE
  5
E9
  8
DATA
  6
CONTINUOUS
 62
     7
 10
112.1587024264722
 20
-398.79900602370031
 30
0.0
 11
116.7587024264721
 21
-398.79900602370031
 31
0.0
  0
LINE
  5
EA
  8
DATA
  6
CONTINUOUS
 62
     7
 10
112.1587024264722
 20
-405.19900602370018
 30
0.0
 11
116.7587024264721
 21
-405.19900602370018
 31
0.0
  0
ARC
  5
EB
  8
DATA
  6
CONTINUOUS
 62
     7
 10
-352.84129757352679
 20
-433.59900602370021
 30
0.0
 40
3.1999999999999882
 50
90.0
 51
270.0
  0
ARC
  5
EC
  8
DATA
  6
CONTINUOUS
 62
     7
 10
-348.24129757352688
 20
-433.59900602370021
 30
0.0
 40
3.1999999999999882
 50
270.0
 51
90.0
  0
LINE
  5
ED
  8
DATA
  6
CONTINUOUS
 62
     7
 10
-352.84129757352679
 20
-436.7990060237002
 30
0.0
 11
-348.24129757352688
 21
-436.7990060237002
 31
0.0
  0
LINE
  5
EE
  8
DATA
  6
CONTINUOUS
 62
     7
 10
-352.84129757352679
 20
-430.39900602370022
 30
0.0
 11
-348.24129757352688
 21
-430.39900602370022
 31
0.0
  0
ARC
  5
EF
  8
DATA
  6
CONTINUOUS
 62
     7
 10
112.1587024264722
 20
-433.59900602370021
 30
0.0
 40
3.1999999999999882
 50
90.0
 51
270.0
  0
ARC
  5
F0
  8
DATA
  6
CONTINUOUS
 62
     7
 10
116.7587024264721
 20
-433.59900602370021
 30
0.0
 40
3.1999999999999882
 50
270.0
 51
90.0
  0
LINE
  5
F1
  8
DATA
  6
CONTINUOUS
 62
     7
 10
112.1587024264722
 20
-436.7990060237002
 30
0.0
 11
116.7587024264721
 21
-436.7990060237002
 31
0.0
  0
LINE
  5
F2
  8
DATA
  6
CONTINUOUS
 62
     7
 10
112.1587024264722
 20
-430.39900602370022
 30
0.0
 11
116.7587024264721
 21
-430.39900602370022
 31
0.0
  0
CIRCLE
  5
F3
  8
DATA
  6
CONTINUOUS
 62
     7
 10
-118.0412975735278
 20
-400.6061113335283
 30
0.0
 40
2.7999999999999958
  0
POLYLINE
  5
F4
  8
DATA
  6
CONTINUOUS
 62
     7
 66
     1
 10
0.0
 20
0.0
 30
0.0
 70
     1
  0
VERTEX
  5
94D
  8
DATA
  6
CONTINUOUS
 62
     7
 10
-116.64129757352779
 20
-400.6061113335283
 30
0.0
  0
VERTEX
  5
94E
  8
DATA
  6
CONTINUOUS
 62
     7
 10
-117.3412975735278
 20
-399.39367576823008
 30
0.0
  0
VERTEX
  5
94F
  8
DATA
  6
CONTINUOUS
 62
     7
 10
-118.7412975735278
 20
-399.39367576823008
 30
0.0
  0
VERTEX
  5
950
  8
DATA
  6
CONTINUOUS
 62
     7
 10
-119.44129757352781
 20
-400.6061113335283
 30
0.0
  0
VERTEX
  5
951
  8
DATA
  6
CONTINUOUS
 62
     7
 10
-118.7412975735278
 20
-401.81854689882653
 30
0.0
  0
VERTEX
  5
952
  8
DATA
  6
CONTINUOUS
 62
     7
 10
-117.3412975735278
 20
-401.81854689882653
 30
0.0
  0
SEQEND
  5
953
  8
DATA
  6
CONTINUOUS
 62
     7
  0
CIRCLE
  5
FC
  8
DATA
  6
CONTINUOUS
 62
     7
 10
-329.83073940456848
 20
-406.08183907243853
 30
0.0
 40
2.8000000000000109
  0
POLYLINE
  5
FD
  8
DATA
  6
CONTINUOUS
 62
     7
 66
     1
 10
0.0
 20
0.0
 30
0.0
 70
     1
  0
VERTEX
  5
954
  8
DATA
  6
CONTINUOUS
 62
     7
 10
-328.4307394045685
 20
-406.08183907243853
 30
0.0
  0
VERTEX
  5
955
  8
DATA
  6
CONTINUOUS
 62
     7
 10
-329.13073940456837
 20
-404.86940350714031
 30
0.0
  0
VERTEX
  5
956
  8
DATA
  6
CONTINUOUS
 62
     7
 10
-330.53073940456841
 20
-404.86940350714031
 30
0.0
  0
VERTEX
  5
957
  8
DATA
  6
CONTINUOUS
 62
     7
 10
-331.23073940456851
 20
-406.08183907243853
 30
0.0
  0
VERTEX
  5
958
  8
DATA
  6
CONTINUOUS
 62
     7
 10
-330.53073940456841
 20
-407.29427463773692
 30
0.0
  0
VERTEX
  5
959
  8
DATA
  6
CONTINUOUS
 62
     7
 10
-329.13073940456837
 20
-407.29427463773692
 30
0.0
  0
SEQEND
  5
95A
  8
DATA
  6
CONTINUOUS
 62
     7
  0
CIRCLE
  5
105
  8
DATA
  6
CONTINUOUS
 62
     7
 10
93.748144257513701
 20
-406.08183907243853
 30
0.0
 40
2.8000000000000109
  0
POLYLINE
  5
106
  8
DATA
  6
CONTINUOUS
 62
     7
 66
     1
 10
0.0
 20
0.0
 30
0.0
 70
     1
  0
VERTEX
  5
95B
  8
DATA
  6
CONTINUOUS
 62
     7
 10
92.348144257513724
 20
-406.08183907243853
 30
0.0
  0
VERTEX
  5
95C
  8
DATA
  6
CONTINUOUS
 62
     7
 10
93.048144257513655
 20
-404.86940350714031
 30
0.0
  0
VERTEX
  5
95D
  8
DATA
  6
CONTINUOUS
 62
     7
 10
94.44814425751369
 20
-404.86940350714031
 30
0.0
  0
VERTEX
  5
95E
  8
DATA
  6
CONTINUOUS
 62
     7
 10
95.148144257513692
 20
-406.08183907243853
 30
0.0
  0
VERTEX
  5
95F
  8
DATA
  6
CONTINUOUS
 62
     7
 10
94.448144257513718
 20
-407.29427463773692
 30
0.0
  0
VERTEX
  5
960
  8
DATA
  6
CONTINUOUS
 62
     7
 10
93.048144257513655
 20
-407.29427463773692
 30
0.0
  0
SEQEND
  5
961
  8
DATA
  6
CONTINUOUS
 62
     7
  0
CIRCLE
  5
10E
  8
DATA
  6
CONTINUOUS
 62
     7
 10
93.748144257513701
 20
-429.51617297496171
 30
0.0
 40
2.8000000000000109
  0
POLYLINE
  5
10F
  8
DATA
  6
CONTINUOUS
 62
     7
 66
     1
 10
0.0
 20
0.0
 30
0.0
 70
     1
  0
VERTEX
  5
962
  8
DATA
  6
CONTINUOUS
 62
     7
 10
92.348144257513724
 20
-429.51617297496171
 30
0.0
  0
VERTEX
  5
963
  8
DATA
  6
CONTINUOUS
 62
     7
 10
93.048144257513655
 20
-430.7286085402601
 30
0.0
  0
VERTEX
  5
964
  8
DATA
  6
CONTINUOUS
 62
     7
 10
94.44814425751369
 20
-430.7286085402601
 30
0.0
  0
VERTEX
  5
965
  8
DATA
  6
CONTINUOUS
 62
     7
 10
95.148144257513692
 20
-429.51617297496171
 30
0.0
  0
VERTEX
  5
966
  8
DATA
  6
CONTINUOUS
 62
     7
 10
94.448144257513718
 20
-428.30373740966371
 30
0.0
  0
VERTEX
  5
967
  8
DATA
  6
CONTINUOUS
 62
     7
 10
93.048144257513655
 20
-428.30373740966371
 30
0.0
  0
SEQEND
  5
968
  8
DATA
  6
CONTINUOUS
 62
     7
  0
POLYLINE
  5
117
  8
DATA
  6
CONTINUOUS
 62
     7
 66
     1
 10
0.0
 20
0.0
 30
0.0
 70
     1
  0
VERTEX
  5
969
  8
DATA
  6
CONTINUOUS
 62
     7
 10
99.836806572626813
 20
-276.3558559447884
 30
0.0
  0
VERTEX
  5
96A
  8
DATA
  6
CONTINUOUS
 62
     7
 10
99.836806572626813
 20
-130.3463881873717
 30
0.0
  0
VERTEX
  5
96B
  8
DATA
  6
CONTINUOUS
 62
     7
 10
-338.16319342737222
 20
-130.3463881873717
 30
0.0
  0
VERTEX
  5
96C
  8
DATA
  6
CONTINUOUS
 62
     7
 10
-338.16319342737222
 20
-276.3558559447884
 30
0.0
  0
SEQEND
  5
96D
  8
DATA
  6
CONTINUOUS
 62
     7
  0
POLYLINE
  5
11D
  8
DATA
  6
CONTINUOUS
 62
     7
 66
     1
 10
0.0
 20
0.0
 30
0.0
 70
     1
  0
VERTEX
  5
96E
  8
DATA
  6
CONTINUOUS
 62
     7
 10
-329.16319342737222
 20
-276.35638818737112
 30
0.0
  0
VERTEX
  5
96F
  8
DATA
  6
CONTINUOUS
 62
     7
 10
90.836806572626799
 20
-276.35638818737112
 30
0.0
  0
VERTEX
  5
970
  8
DATA
  6
CONTINUOUS
 62
     7
 10
90.836806572626799
 20
-276.84638818737108
 30
0.0
  0
VERTEX
  5
971
  8
DATA
  6
CONTINUOUS
 62
     7
 10
-329.16319342737222
 20
-276.84638818737108
 30
0.0
  0
SEQEND
  5
972
  8
DATA
  6
CONTINUOUS
 62
     7
  0
LINE
  5
123
  8
DATA
  6
CONTINUOUS
 62
     7
 10
-338.16319342737222
 20
-276.3558559447884
 30
0.0
 11
-338.16319342737222
 21
-276.84638818737108
 31
0.0
  0
LINE
  5
124
  8
DATA
  6
CONTINUOUS
 62
     7
 10
99.836806572626813
 20
-276.3558559447884
 30
0.0
 11
99.836806572626912
 21
-276.84638818737108
 31
0.0
  0
ARC
  5
125
  8
DATA
  6
CONTINUOUS
 62
     7
 10
-335.6247318889105
 20
-259.84638818737119
 30
0.0
 40
4.8384615384617176
 50
136.99713135190601
 51
223.00286864809399
  0
LINE
  5
126
  8
DATA
  6
CONTINUOUS
 62
     7
 10
-339.16319342737222
 20
-256.54638818737112
 30
0.0
 11
-338.16319342737222
 21
-256.54638818737112
 31
0.0
  0
LINE
  5
127
  8
DATA
  6
CONTINUOUS
 62
     7
 10
-339.16319342737222
 20
-263.14638818737109
 30
0.0
 11
-338.16319342737222
 21
-263.14638818737109
 31
0.0
  0
ARC
  5
128
  8
DATA
  6
CONTINUOUS
 62
     7
 10
-335.6247318889105
 20
-147.8463881873717
 30
0.0
 40
4.8384615384617176
 50
136.99713135190601
 51
223.00286864809399
  0
LINE
  5
129
  8
DATA
  6
CONTINUOUS
 62
     7
 10
-339.16319342737222
 20
-144.54638818737169
 30
0.0
 11
-338.16319342737222
 21
-144.54638818737169
 31
0.0
  0
LINE
  5
12A
  8
DATA
  6
CONTINUOUS
 62
     7
 10
-339.16319342737222
 20
-151.14638818737171
 30
0.0
 11
-338.16319342737222
 21
-151.14638818737171
 31
0.0
  0
ARC
  5
12B
  8
DATA
  6
CONTINUOUS
 62
     7
 10
97.298345034165052
 20
-259.84638818737119
 30
0.0
 40
4.8384615384617176
 50
316.99713135190598
 51
43.002868648094008
  0
LINE
  5
12C
  8
DATA
  6
CONTINUOUS
 62
     7
 10
100.8368065726268
 20
-256.54638818737112
 30
0.0
 11
99.836806572626813
 21
-256.54638818737112
 31
0.0
  0
LINE
  5
12D
  8
DATA
  6
CONTINUOUS
 62
     7
 10
100.8368065726268
 20
-263.14638818737109
 30
0.0
 11
99.836806572626813
 21
-263.14638818737109
 31
0.0
  0
ARC
  5
12E
  8
DATA
  6
CONTINUOUS
 62
     7
 10
97.298345034165052
 20
-147.8463881873717
 30
0.0
 40
4.8384615384617176
 50
316.99713135190598
 51
43.002868648094008
  0
LINE
  5
12F
  8
DATA
  6
CONTINUOUS
 62
     7
 10
100.8368065726268
 20
-144.54638818737169
 30
0.0
 11
99.836806572626813
 21
-144.54638818737169
 31
0.0
  0
LINE
  5
130
  8
DATA
  6
CONTINUOUS
 62
     7
 10
100.8368065726268
 20
-151.14638818737171
 30
0.0
 11
99.836806572626813
 21
-151.14638818737171
 31
0.0
  0
LINE
  5
131
  8
DATA
  6
CONTINUOUS
 62
     7
 10
-332.25263525841382
 20
-282.84638818737119
 30
0.0
 11
-329.65263525841368
 21
-282.84638818737119
 31
0.0
  0
LINE
  5
132
  8
DATA
  6
CONTINUOUS
 62
     7
 10
-333.75263525841382
 20
-281.34638818737108
 30
0.0
 11
-333.75263525841382
 21
-279.84638818737108
 31
0.0
  0
LINE
  5
133
  8
DATA
  6
CONTINUOUS
 62
     7
 10
-328.15263525841368
 20
-281.34638818737108
 30
0.0
 11
-328.15263525841368
 21
-279.84638818737108
 31
0.0
  0
ARC
  5
134
  8
DATA
  6
CONTINUOUS
 62
     7
 10
-332.25263525841382
 20
-281.34638818737108
 30
0.0
 40
1.5
 50
180.0
 51
270.0
  0
ARC
  5
135
  8
DATA
  6
CONTINUOUS
 62
     7
 10
-329.65263525841368
 20
-281.34638818737108
 30
0.0
 40
1.5
 50
270.0
 51
0.0
  0
LINE
  5
136
  8
DATA
  6
CONTINUOUS
 62
     7
 10
93.926248403668367
 20
-282.84638818737119
 30
0.0
 11
91.326248403668345
 21
-282.84638818737119
 31
0.0
  0
LINE
  5
137
  8
DATA
  6
CONTINUOUS
 62
     7
 10
95.426248403668367
 20
-281.34638818737108
 30
0.0
 11
95.426248403668367
 21
-279.84638818737108
 31
0.0
  0
LINE
  5
138
  8
DATA
  6
CONTINUOUS
 62
     7
 10
89.826248403668345
 20
-281.34638818737108
 30
0.0
 11
89.826248403668345
 21
-279.84638818737108
 31
0.0
  0
ARC
  5
139
  8
DATA
  6
CONTINUOUS
 62
     7
 10
93.926248403668367
 20
-281.34638818737108
 30
0.0
 40
1.5
 50
270.0
 51
0.0
  0
ARC
  5
13A
  8
DATA
  6
CONTINUOUS
 62
     7
 10
91.326248403668345
 20
-281.34638818737108
 30
0.0
 40
1.5
 50
180.0
 51
270.0
  0
POLYLINE
  5
13B
  8
DATA
  6
CONTINUOUS
 62
     7
 66
     1
 10
0.0
 20
0.0
 30
0.0
 70
     1
  0
VERTEX
  5
973
  8
DATA
  6
CONTINUOUS
 62
     7
 10
60.336806572626813
 20
-128.8463881873717
 30
0.0
  0
VERTEX
  5
974
  8
DATA
  6
CONTINUOUS
 62
     7
 10
90.336806572626813
 20
-128.8463881873717
 30
0.0
  0
VERTEX
  5
975
  8
DATA
  6
CONTINUOUS
 62
     7
 10
90.336806572626813
 20
-130.3463881873717
 30
0.0
  0
VERTEX
  5
976
  8
DATA
  6
CONTINUOUS
 62
     7
 10
60.336806572626813
 20
-130.3463881873717
 30
0.0
  0
SEQEND
  5
977
  8
DATA
  6
CONTINUOUS
 62
     7
  0
LINE
  5
141
  8
DATA
  6
CONTINUOUS
 62
     7
 10
-315.98521117639109
 20
-126.53946563968221
 30
0.0
 11
-306.18521117639108
 21
-126.53946563968221
 31
0.0
  0
LINE
  5
142
  8
DATA
  6
CONTINUOUS
 62
     7
 10
-315.98521117639109
 20
-126.3394656396821
 30
0.0
 11
-306.18521117639108
 21
-126.3394656396821
 31
0.0
  0
LINE
  5
143
  8
DATA
  6
CONTINUOUS
 62
     7
 10
-315.98521117639109
 20
-126.53946563968221
 30
0.0
 11
-315.98521117639109
 21
-126.3394656396821
 31
0.0
  0
LINE
  5
144
  8
DATA
  6
CONTINUOUS
 62
     7
 10
-306.18521117639108
 20
-126.53946563968221
 30
0.0
 11
-306.18521117639108
 21
-126.3394656396821
 31
0.0
  0
ARC
  5
145
  8
DATA
  6
CONTINUOUS
 62
     7
 10
116.7988196181646
 20
6.3939143277224701
 30
0.0
 40
3.1999999999999962
 50
270.0
 51
90.0
  0
ARC
  5
146
  8
DATA
  6
CONTINUOUS
 62
     7
 10
112.19881961816471
 20
6.3939143277224701
 30
0.0
 40
3.1999999999999811
 50
90.0
 51
270.0
  0
LINE
  5
147
  8
DATA
  6
CONTINUOUS
 62
     7
 10
116.7988196181646
 20
3.193914327722474
 30
0.0
 11
112.19881961816471
 21
3.193914327722474
 31
0.0
  0
LINE
  5
148
  8
DATA
  6
CONTINUOUS
 62
     7
 10
116.7988196181646
 20
9.5939143277224517
 30
0.0
 11
112.19881961816471
 21
9.5939143277224517
 31
0.0
  0
ARC
  5
149
  8
DATA
  6
CONTINUOUS
 62
     7
 10
-348.20118038183449
 20
6.3939143277224701
 30
0.0
 40
3.1999999999999962
 50
270.0
 51
90.0
  0
ARC
  5
14A
  8
DATA
  6
CONTINUOUS
 62
     7
 10
-352.80118038183451
 20
6.3939143277224701
 30
0.0
 40
3.1999999999999811
 50
90.0
 51
270.0
  0
LINE
  5
14B
  8
DATA
  6
CONTINUOUS
 62
     7
 10
-348.20118038183449
 20
3.193914327722474
 30
0.0
 11
-352.80118038183451
 21
3.193914327722474
 31
0.0
  0
LINE
  5
14C
  8
DATA
  6
CONTINUOUS
 62
     7
 10
-348.20118038183449
 20
9.5939143277224517
 30
0.0
 11
-352.80118038183451
 21
9.5939143277224517
 31
0.0
  0
ARC
  5
14D
  8
DATA
  6
CONTINUOUS
 62
     7
 10
116.7988196181646
 20
37.993914327722493
 30
0.0
 40
3.1999999999999882
 50
270.0
 51
90.0
  0
ARC
  5
14E
  8
DATA
  6
CONTINUOUS
 62
     7
 10
112.19881961816471
 20
37.993914327722493
 30
0.0
 40
3.1999999999999882
 50
90.0
 51
270.0
  0
LINE
  5
14F
  8
DATA
  6
CONTINUOUS
 62
     7
 10
116.7988196181646
 20
41.193914327722467
 30
0.0
 11
112.19881961816471
 21
41.193914327722467
 31
0.0
  0
LINE
  5
150
  8
DATA
  6
CONTINUOUS
 62
     7
 10
116.7988196181646
 20
34.793914327722497
 30
0.0
 11
112.19881961816471
 21
34.793914327722497
 31
0.0
  0
ARC
  5
151
  8
DATA
  6
CONTINUOUS
 62
     7
 10
-348.20118038183449
 20
37.993914327722493
 30
0.0
 40
3.1999999999999882
 50
270.0
 51
90.0
  0
ARC
  5
152
  8
DATA
  6
CONTINUOUS
 62
     7
 10
-352.80118038183451
 20
37.993914327722493
 30
0.0
 40
3.1999999999999882
 50
90.0
 51
270.0
  0
LINE
  5
153
  8
DATA
  6
CONTINUOUS
 62
     7
 10
-348.20118038183449
 20
41.193914327722467
 30
0.0
 11
-352.80118038183451
 21
41.193914327722467
 31
0.0
  0
LINE
  5
154
  8
DATA
  6
CONTINUOUS
 62
     7
 10
-348.20118038183449
 20
34.793914327722497
 30
0.0
 11
-352.80118038183451
 21
34.793914327722497
 31
0.0
  0
LINE
  5
155
  8
DATA
  6
CONTINUOUS
 62
     7
 10
100.9988196181647
 20
44.39391432772247
 30
0.0
 11
100.9988196181647
 21
-0.0060856722775
 31
0.0
  0
LINE
  5
156
  8
DATA
  6
CONTINUOUS
 62
     7
 10
-337.0011803818345
 20
44.39391432772247
 30
0.0
 11
-337.0011803818345
 21
-0.0060856722775
 31
0.0
  0
LINE
  5
157
  8
DATA
  6
CONTINUOUS
 62
     7
 10
95.698819618164677
 20
5.2939143277224971
 30
0.0
 11
-331.70118038183449
 21
5.2939143277224971
 31
0.0
  0
LINE
  5
158
  8
DATA
  6
CONTINUOUS
 62
     7
 10
-331.70118038183449
 20
39.993914327722493
 30
0.0
 11
-331.70118038183449
 21
5.2939143277224971
 31
0.0
  0
LINE
  5
159
  8
DATA
  6
CONTINUOUS
 62
     7
 10
95.698819618164677
 20
39.993914327722493
 30
0.0
 11
95.698819618164677
 21
5.2939143277224971
 31
0.0
  0
LINE
  5
15A
  8
DATA
  6
CONTINUOUS
 62
     7
 10
95.698819618164677
 20
5.2939143277224971
 30
0.0
 11
100.9988196181647
 21
-0.0060856722775
 31
0.0
  0
LINE
  5
15B
  8
DATA
  6
CONTINUOUS
 62
     7
 10
-331.70118038183449
 20
5.2939143277224971
 30
0.0
 11
-337.0011803818345
 21
-0.0060856722775
 31
0.0
  0
POLYLINE
  5
15C
  8
DATA
  6
CONTINUOUS
 62
     7
 66
     1
 10
0.0
 20
0.0
 30
0.0
 70
   128
  0
VERTEX
  5
978
  8
DATA
  6
CONTINUOUS
 62
     7
 10
88.420451011082207
 20
33.351121808347081
 30
0.0
  0
VERTEX
  5
979
  8
DATA
  6
CONTINUOUS
 62
     7
 10
88.299355236936933
 20
33.351121808346427
 30
0.0
  0
VERTEX
  5
97A
  8
DATA
  6
CONTINUOUS
 62
     7
 10
88.143340270228023
 20
33.351121808345908
 30
0.0
  0
VERTEX
  5
97B
  8
DATA
  6
CONTINUOUS
 62
     7
 10
87.952406110955408
 20
33.351121808345532
 30
0.0
  0
VERTEX
  5
97C
  8
DATA
  6
CONTINUOUS
 62
     7
 10
87.726552759119187
 20
33.351121808345269
 30
0.0
  0
VERTEX
  5
97D
  8
DATA
  6
CONTINUOUS
 62
     7
 10
87.465780214719317
 20
33.351121808345162
 30
0.0
  0
VERTEX
  5
97E
  8
DATA
  6
CONTINUOUS
 62
     7
 10
87.170088477755769
 20
33.351121808345177
 30
0.0
  0
VERTEX
  5
97F
  8
DATA
  6
CONTINUOUS
 62
     7
 10
86.839477548228587
 20
33.35112180834534
 30
0.0
  0
VERTEX
  5
980
  8
DATA
  6
CONTINUOUS
 62
     7
 10
86.473947426137727
 20
33.351121808345631
 30
0.0
  0
VERTEX
  5
981
  8
DATA
  6
CONTINUOUS
 62
     7
 10
86.088973691491262
 20
33.351121808345972
 30
0.0
  0
VERTEX
  5
982
  8
DATA
  6
CONTINUOUS
 62
     7
 10
85.700031924297193
 20
33.351121808346257
 30
0.0
  0
VERTEX
  5
983
  8
DATA
  6
CONTINUOUS
 62
     7
 10
85.307122124555534
 20
33.351121808346512
 30
0.0
  0
VERTEX
  5
984
  8
DATA
  6
CONTINUOUS
 62
     7
 10
84.910244292266299
 20
33.351121808346718
 30
0.0
  0
VERTEX
  5
985
  8
DATA
  6
CONTINUOUS
 62
     7
 10
84.509398427429446
 20
33.351121808346882
 30
0.0
  0
VERTEX
  5
986
  8
DATA
  6
CONTINUOUS
 62
     7
 10
84.104584530045017
 20
33.351121808346988
 30
0.0
  0
VERTEX
  5
987
  8
DATA
  6
CONTINUOUS
 62
     7
 10
83.695802600112984
 20
33.35112180834706
 30
0.0
  0
VERTEX
  5
988
  8
DATA
  6
CONTINUOUS
 62
     7
 10
83.283052637633375
 20
33.351121808347081
 30
0.0
  0
VERTEX
  5
989
  8
DATA
  6
CONTINUOUS
 62
     7
 10
82.864166625760987
 20
33.35112180834706
 30
0.0
  0
VERTEX
  5
98A
  8
DATA
  6
CONTINUOUS
 62
     7
 10
82.436976547650644
 20
33.351121808346988
 30
0.0
  0
VERTEX
  5
98B
  8
DATA
  6
CONTINUOUS
 62
     7
 10
82.001482403302376
 20
33.351121808346882
 30
0.0
  0
VERTEX
  5
98C
  8
DATA
  6
CONTINUOUS
 62
     7
 10
81.557684192716124
 20
33.351121808346718
 30
0.0
  0
VERTEX
  5
98D
  8
DATA
  6
CONTINUOUS
 62
     7
 10
81.105581915891932
 20
33.351121808346512
 30
0.0
  0
VERTEX
  5
98E
  8
DATA
  6
CONTINUOUS
 62
     7
 10
80.645175572829814
 20
33.351121808346257
 30
0.0
  0
VERTEX
  5
98F
  8
DATA
  6
CONTINUOUS
 62
     7
 10
80.176465163529727
 20
33.351121808345972
 30
0.0
  0
VERTEX
  5
990
  8
DATA
  6
CONTINUOUS
 62
     7
 10
79.699450687991686
 20
33.351121808345631
 30
0.0
  0
VERTEX
  5
991
  8
DATA
  6
CONTINUOUS
 62
     7
 10
79.216900494084726
 20
33.351121808345312
 30
0.0
  0
VERTEX
  5
992
  8
DATA
  6
CONTINUOUS
 62
     7
 10
78.731582929677785
 20
33.351121808345091
 30
0.0
  0
VERTEX
  5
993
  8
DATA
  6
CONTINUOUS
 62
     7
 10
78.243497994770848
 20
33.351121808344963
 30
0.0
  0
VERTEX
  5
994
  8
DATA
  6
CONTINUOUS
 62
     7
 10
77.752645689363931
 20
33.351121808344907
 30
0.0
  0
VERTEX
  5
995
  8
DATA
  6
CONTINUOUS
 62
     7
 10
77.25902601345706
 20
33.351121808344963
 30
0.0
  0
VERTEX
  5
996
  8
DATA
  6
CONTINUOUS
 62
     7
 10
76.762638967050222
 20
33.351121808345091
 30
0.0
  0
VERTEX
  5
997
  8
DATA
  6
CONTINUOUS
 62
     7
 10
76.263484550143403
 20
33.351121808345312
 30
0.0
  0
VERTEX
  5
998
  8
DATA
  6
CONTINUOUS
 62
     7
 10
75.761562762736602
 20
33.351121808345631
 30
0.0
  0
VERTEX
  5
999
  8
DATA
  6
CONTINUOUS
 62
     7
 10
75.259640037005553
 20
33.351121808345972
 30
0.0
  0
VERTEX
  5
99A
  8
DATA
  6
CONTINUOUS
 62
     7
 10
74.760482805125946
 20
33.351121808346257
 30
0.0
  0
VERTEX
  5
99B
  8
DATA
  6
CONTINUOUS
 62
     7
 10
74.264091067097823
 20
33.351121808346512
 30
0.0
  0
VERTEX
  5
99C
  8
DATA
  6
CONTINUOUS
 62
     7
 10
73.770464822921099
 20
33.351121808346718
 30
0.0
  0
VERTEX
  5
99D
  8
DATA
  6
CONTINUOUS
 62
     7
 10
73.279604072595845
 20
33.351121808346882
 30
0.0
  0
VERTEX
  5
99E
  8
DATA
  6
CONTINUOUS
 62
     7
 10
72.791508816122032
 20
33.351121808346988
 30
0.0
  0
VERTEX
  5
99F
  8
DATA
  6
CONTINUOUS
 62
     7
 10
72.306179053499662
 20
33.35112180834706
 30
0.0
  0
VERTEX
  5
9A0
  8
DATA
  6
CONTINUOUS
 62
     7
 10
71.823614784728761
 20
33.351121808347081
 30
0.0
  0
VERTEX
  5
9A1
  8
DATA
  6
CONTINUOUS
 62
     7
 10
71.346590327872661
 20
33.351121808347081
 30
0.0
  0
VERTEX
  5
9A2
  8
DATA
  6
CONTINUOUS
 62
     7
 10
70.877880000994764
 20
33.351121808347081
 30
0.0
  0
VERTEX
  5
9A3
  8
DATA
  6
CONTINUOUS
 62
     7
 10
70.417483804095042
 20
33.351121808347081
 30
0.0
  0
VERTEX
  5
9A4
  8
DATA
  6
CONTINUOUS
 62
     7
 10
69.965401737173508
 20
33.351121808347081
 30
0.0
  0
VERTEX
  5
9A5
  8
DATA
  6
CONTINUOUS
 62
     7
 10
69.521633800230177
 20
33.351121808347081
 30
0.0
  0
VERTEX
  5
9A6
  8
DATA
  6
CONTINUOUS
 62
     7
 10
69.086179993265006
 20
33.351121808347081
 30
0.0
  0
VERTEX
  5
9A7
  8
DATA
  6
CONTINUOUS
 62
     7
 10
68.659040316278023
 20
33.351121808347081
 30
0.0
  0
VERTEX
  5
9A8
  8
DATA
  6
CONTINUOUS
 62
     7
 10
68.240214769269244
 20
33.351121808347081
 30
0.0
  0
VERTEX
  5
9A9
  8
DATA
  6
CONTINUOUS
 62
     7
 10
67.8273777487465
 20
33.35112180834706
 30
0.0
  0
VERTEX
  5
9AA
  8
DATA
  6
CONTINUOUS
 62
     7
 10
67.418203651217652
 20
33.351121808346988
 30
0.0
  0
VERTEX
  5
9AB
  8
DATA
  6
CONTINUOUS
 62
     7
 10
67.012692476682716
 20
33.351121808346882
 30
0.0
  0
VERTEX
  5
9AC
  8
DATA
  6
CONTINUOUS
 62
     7
 10
66.610844225141676
 20
33.351121808346718
 30
0.0
  0
VERTEX
  5
9AD
  8
DATA
  6
CONTINUOUS
 62
     7
 10
66.212658896594519
 20
33.351121808346512
 30
0.0
  0
VERTEX
  5
9AE
  8
DATA
  6
CONTINUOUS
 62
     7
 10
65.818136491041273
 20
33.351121808346257
 30
0.0
  0
VERTEX
  5
9AF
  8
DATA
  6
CONTINUOUS
 62
     7
 10
65.427277008481923
 20
33.351121808345972
 30
0.0
  0
VERTEX
  5
9B0
  8
DATA
  6
CONTINUOUS
 62
     7
 10
65.04008044891647
 20
33.351121808345631
 30
0.0
  0
VERTEX
  5
9B1
  8
DATA
  6
CONTINUOUS
 62
     7
 10
64.672672798242871
 20
33.35112180834534
 30
0.0
  0
VERTEX
  5
9B2
  8
DATA
  6
CONTINUOUS
 62
     7
 10
64.341180042359014
 20
33.351121808345177
 30
0.0
  0
VERTEX
  5
9B3
  8
DATA
  6
CONTINUOUS
 62
     7
 10
64.045602181264897
 20
33.351121808345162
 30
0.0
  0
VERTEX
  5
9B4
  8
DATA
  6
CONTINUOUS
 62
     7
 10
63.785939214960543
 20
33.351121808345269
 30
0.0
  0
VERTEX
  5
9B5
  8
DATA
  6
CONTINUOUS
 62
     7
 10
63.562191143445943
 20
33.351121808345532
 30
0.0
  0
VERTEX
  5
9B6
  8
DATA
  6
CONTINUOUS
 62
     7
 10
63.374357966721099
 20
33.351121808345908
 30
0.0
  0
VERTEX
  5
9B7
  8
DATA
  6
CONTINUOUS
 62
     7
 10
63.222439684786018
 20
33.351121808346427
 30
0.0
  0
VERTEX
  5
9B8
  8
DATA
  6
CONTINUOUS
 62
     7
 10
63.106436297640698
 20
33.351121808347081
 30
0.0
  0
VERTEX
  5
9B9
  8
DATA
  6
CONTINUOUS
 62
     7
 10
63.106436297640698
 20
33.351121808347081
 30
0.0
  0
VERTEX
  5
9BA
  8
DATA
  6
CONTINUOUS
 62
     7
 10
63.106436297640698
 20
33.351121808347081
 30
0.0
  0
VERTEX
  5
9BB
  8
DATA
  6
CONTINUOUS
 62
     7
 10
63.07797940191972
 20
33.351121808347081
 30
0.0
  0
VERTEX
  5
9BC
  8
DATA
  6
CONTINUOUS
 62
     7
 10
62.833722926203521
 20
33.335933162639449
 30
0.0
  0
VERTEX
  5
9BD
  8
DATA
  6
CONTINUOUS
 62
     7
 10
62.604413472084467
 20
33.30853507011863
 30
0.0
  0
VERTEX
  5
9BE
  8
DATA
  6
CONTINUOUS
 62
     7
 10
62.3900510395626
 20
33.268927530784609
 30
0.0
  0
VERTEX
  5
9BF
  8
DATA
  6
CONTINUOUS
 62
     7
 10
62.190635628637878
 20
33.217110544637407
 30
0.0
  0
VERTEX
  5
9C0
  8
DATA
  6
CONTINUOUS
 62
     7
 10
62.006167239310351
 20
33.153084111677018
 30
0.0
  0
VERTEX
  5
9C1
  8
DATA
  6
CONTINUOUS
 62
     7
 10
61.836645871579982
 20
33.07684823190344
 30
0.0
  0
VERTEX
  5
9C2
  8
DATA
  6
CONTINUOUS
 62
     7
 10
61.682071525446773
 20
32.988402905316683
 30
0.0
  0
VERTEX
  5
9C3
  8
DATA
  6
CONTINUOUS
 62
     7
 10
61.542444200910722
 20
32.88774813191673
 30
0.0
  0
VERTEX
  5
9C4
  8
DATA
  6
CONTINUOUS
 62
     7
 10
61.413697629506672
 20
32.779981514526384
 30
0.0
  0
VERTEX
  5
9C5
  8
DATA
  6
CONTINUOUS
 62
     7
 10
61.29176554276944
 20
32.670200655968429
 30
0.0
  0
VERTEX
  5
9C6
  8
DATA
  6
CONTINUOUS
 62
     7
 10
61.17664794069902
 20
32.55840555624286
 30
0.0
  0
VERTEX
  5
9C7
  8
DATA
  6
CONTINUOUS
 62
     7
 10
61.068344823295419
 20
32.444596215349691
 30
0.0
  0
VERTEX
  5
9C8
  8
DATA
  6
CONTINUOUS
 62
     7
 10
60.966856190558651
 20
32.328772633288942
 30
0.0
  0
VERTEX
  5
9C9
  8
DATA
  6
CONTINUOUS
 62
     7
 10
60.87218204248866
 20
32.21093481006055
 30
0.0
  0
VERTEX
  5
9CA
  8
DATA
  6
CONTINUOUS
 62
     7
 10
60.784322379085523
 20
32.091082745664572
 30
0.0
  0
VERTEX
  5
9CB
  8
DATA
  6
CONTINUOUS
 62
     7
 10
60.703277200349191
 20
31.969216440101
 30
0.0
  0
VERTEX
  5
9CC
  8
DATA
  6
CONTINUOUS
 62
     7
 10
60.63012674349406
 20
31.842120192161861
 30
0.0
  0
VERTEX
  5
9CD
  8
DATA
  6
CONTINUOUS
 62
     7
 10
60.56595124573451
 20
31.706578300639229
 30
0.0
  0
VERTEX
  5
9CE
  8
DATA
  6
CONTINUOUS
 62
     7
 10
60.510750707070549
 20
31.562590765533081
 30
0.0
  0
VERTEX
  5
9CF
  8
DATA
  6
CONTINUOUS
 62
     7
 10
60.464525127502171
 20
31.410157586843429
 30
0.0
  0
VERTEX
  5
9D0
  8
DATA
  6
CONTINUOUS
 62
     7
 10
60.427274507029381
 20
31.249278764570271
 30
0.0
  0
VERTEX
  5
9D1
  8
DATA
  6
CONTINUOUS
 62
     7
 10
60.398998845652152
 20
31.079954298713609
 30
0.0
  0
VERTEX
  5
9D2
  8
DATA
  6
CONTINUOUS
 62
     7
 10
60.379698143370533
 20
30.902184189273449
 30
0.0
  0
VERTEX
  5
9D3
  8
DATA
  6
CONTINUOUS
 62
     7
 10
60.369372400184488
 20
30.715968436249788
 30
0.0
  0
VERTEX
  5
9D4
  8
DATA
  6
CONTINUOUS
 62
     7
 10
60.369372400184488
 20
30.715968436249788
 30
0.0
  0
VERTEX
  5
9D5
  8
DATA
  6
CONTINUOUS
 62
     7
 10
60.369372400184488
 20
30.685569358248749
 30
0.0
  0
VERTEX
  5
9D6
  8
DATA
  6
CONTINUOUS
 62
     7
 10
60.369372400184488
 20
30.685569358248749
 30
0.0
  0
VERTEX
  5
9D7
  8
DATA
  6
CONTINUOUS
 62
     7
 10
60.369372400184488
 20
30.599506832393999
 30
0.0
  0
VERTEX
  5
9D8
  8
DATA
  6
CONTINUOUS
 62
     7
 10
60.369372400184488
 20
30.488627305829901
 30
0.0
  0
VERTEX
  5
9D9
  8
DATA
  6
CONTINUOUS
 62
     7
 10
60.369372400184488
 20
30.352930778556448
 30
0.0
  0
VERTEX
  5
9DA
  8
DATA
  6
CONTINUOUS
 62
     7
 10
60.369372400184488
 20
30.192417250573669
 30
0.0
  0
VERTEX
  5
9DB
  8
DATA
  6
CONTINUOUS
 62
     7
 10
60.369372400184488
 20
30.007086721881532
 30
0.0
  0
VERTEX
  5
9DC
  8
DATA
  6
CONTINUOUS
 62
     7
 10
60.369372400184488
 20
29.79693919248005
 30
0.0
  0
VERTEX
  5
9DD
  8
DATA
  6
CONTINUOUS
 62
     7
 10
60.369372400184488
 20
29.56197466236922
 30
0.0
  0
VERTEX
  5
9DE
  8
DATA
  6
CONTINUOUS
 62
     7
 10
60.369372400184488
 20
29.302193131549039
 30
0.0
  0
VERTEX
  5
9DF
  8
DATA
  6
CONTINUOUS
 62
     7
 10
60.369372400184488
 20
29.028593063954091
 30
0.0
  0
VERTEX
  5
9E0
  8
DATA
  6
CONTINUOUS
 62
     7
 10
60.369372400184488
 20
28.752172923518948
 30
0.0
  0
VERTEX
  5
9E1
  8
DATA
  6
CONTINUOUS
 62
     7
 10
60.369372400184488
 20
28.472932710243612
 30
0.0
  0
VERTEX
  5
9E2
  8
DATA
  6
CONTINUOUS
 62
     7
 10
60.369372400184488
 20
28.190872424128091
 30
0.0
  0
VERTEX
  5
9E3
  8
DATA
  6
CONTINUOUS
 62
     7
 10
60.369372400184488
 20
27.90599206517237
 30
0.0
  0
VERTEX
  5
9E4
  8
DATA
  6
CONTINUOUS
 62
     7
 10
60.369372400184488
 20
27.618291633376469
 30
0.0
  0
VERTEX
  5
9E5
  8
DATA
  6
CONTINUOUS
 62
     7
 10
60.369372400184488
 20
27.327771128740359
 30
0.0
  0
VERTEX
  5
9E6
  8
DATA
  6
CONTINUOUS
 62
     7
 10
60.369372400184488
 20
27.034430551264069
 30
0.0
  0
VERTEX
  5
9E7
  8
DATA
  6
CONTINUOUS
 62
     7
 10
60.369372400184488
 20
26.736729095687451
 30
0.0
  0
VERTEX
  5
9E8
  8
DATA
  6
CONTINUOUS
 62
     7
 10
60.369372400184488
 20
26.433125956750391
 30
0.0
  0
VERTEX
  5
9E9
  8
DATA
  6
CONTINUOUS
 62
     7
 10
60.369372400184488
 20
26.123621134452868
 30
0.0
  0
VERTEX
  5
9EA
  8
DATA
  6
CONTINUOUS
 62
     7
 10
60.369372400184488
 20
25.808214628794889
 30
0.0
  0
VERTEX
  5
9EB
  8
DATA
  6
CONTINUOUS
 62
     7
 10
60.369372400184488
 20
25.486906439776469
 30
0.0
  0
VERTEX
  5
9EC
  8
DATA
  6
CONTINUOUS
 62
     7
 10
60.369372400184488
 20
25.159696567397589
 30
0.0
  0
VERTEX
  5
9ED
  8
DATA
  6
CONTINUOUS
 62
     7
 10
60.369372400184488
 20
24.82658501165827
 30
0.0
  0
VERTEX
  5
9EE
  8
DATA
  6
CONTINUOUS
 62
     7
 10
60.369372400184488
 20
24.487571772558479
 30
0.0
  0
VERTEX
  5
9EF
  8
DATA
  6
CONTINUOUS
 62
     7
 10
60.369372400184488
 20
24.144624309423111
 30
0.0
  0
VERTEX
  5
9F0
  8
DATA
  6
CONTINUOUS
 62
     7
 10
60.369372400184488
 20
23.799710081577
 30
0.0
  0
VERTEX
  5
9F1
  8
DATA
  6
CONTINUOUS
 62
     7
 10
60.369372400184488
 20
23.452829089020149
 30
0.0
  0
VERTEX
  5
9F2
  8
DATA
  6
CONTINUOUS
 62
     7
 10
60.369372400184488
 20
23.103981331752571
 30
0.0
  0
VERTEX
  5
9F3
  8
DATA
  6
CONTINUOUS
 62
     7
 10
60.369372400184488
 20
22.75316680977425
 30
0.0
  0
VERTEX
  5
9F4
  8
DATA
  6
CONTINUOUS
 62
     7
 10
60.369372400184488
 20
22.400385523085198
 30
0.0
  0
VERTEX
  5
9F5
  8
DATA
  6
CONTINUOUS
 62
     7
 10
60.369372400184488
 20
22.04563747168541
 30
0.0
  0
VERTEX
  5
9F6
  8
DATA
  6
CONTINUOUS
 62
     7
 10
60.369372400184488
 20
21.688922655574881
 30
0.0
  0
VERTEX
  5
9F7
  8
DATA
  6
CONTINUOUS
 62
     7
 10
60.369372400184488
 20
21.332207172599158
 30
0.0
  0
VERTEX
  5
9F8
  8
DATA
  6
CONTINUOUS
 62
     7
 10
60.369372400184488
 20
20.977457120603731
 30
0.0
  0
VERTEX
  5
9F9
  8
DATA
  6
CONTINUOUS
 62
     7
 10
60.369372400184488
 20
20.62467249958863
 30
0.0
  0
VERTEX
  5
9FA
  8
DATA
  6
CONTINUOUS
 62
     7
 10
60.369372400184488
 20
20.273853309553839
 30
0.0
  0
VERTEX
  5
9FB
  8
DATA
  6
CONTINUOUS
 62
     7
 10
60.369372400184488
 20
19.924999550499351
 30
0.0
  0
VERTEX
  5
9FC
  8
DATA
  6
CONTINUOUS
 62
     7
 10
60.369372400184488
 20
19.578111222425179
 30
0.0
  0
VERTEX
  5
9FD
  8
DATA
  6
CONTINUOUS
 62
     7
 10
60.369372400184488
 20
19.23318832533133
 30
0.0
  0
VERTEX
  5
9FE
  8
DATA
  6
CONTINUOUS
 62
     7
 10
60.369372400184488
 20
18.890230859217791
 30
0.0
  0
VERTEX
  5
9FF
  8
DATA
  6
CONTINUOUS
 62
     7
 10
60.369372400184488
 20
18.551210526414771
 30
0.0
  0
VERTEX
  5
A00
  8
DATA
  6
CONTINUOUS
 62
     7
 10
60.369372400184488
 20
18.21809902925246
 30
0.0
  0
VERTEX
  5
A01
  8
DATA
  6
CONTINUOUS
 62
     7
 10
60.369372400184488
 20
17.890896367730878
 30
0.0
  0
VERTEX
  5
A02
  8
DATA
  6
CONTINUOUS
 62
     7
 10
60.369372400184488
 20
17.569602541850031
 30
0.0
  0
VERTEX
  5
A03
  8
DATA
  6
CONTINUOUS
 62
     7
 10
60.369372400184488
 20
17.254217551609901
 30
0.0
  0
VERTEX
  5
A04
  8
DATA
  6
CONTINUOUS
 62
     7
 10
60.369372400184488
 20
16.94474139701051
 30
0.0
  0
VERTEX
  5
A05
  8
DATA
  6
CONTINUOUS
 62
     7
 10
60.369372400184488
 20
16.641174078051819
 30
0.0
  0
VERTEX
  5
A06
  8
DATA
  6
CONTINUOUS
 62
     7
 10
60.369372400184488
 20
16.343515594733859
 30
0.0
  0
VERTEX
  5
A07
  8
DATA
  6
CONTINUOUS
 62
     7
 10
60.369372400184488
 20
16.050113145279841
 30
0.0
  0
VERTEX
  5
A08
  8
DATA
  6
CONTINUOUS
 62
     7
 10
60.369372400184488
 20
15.759313927912959
 30
0.0
  0
VERTEX
  5
A09
  8
DATA
  6
CONTINUOUS
 62
     7
 10
60.369372400184488
 20
15.47111794263321
 30
0.0
  0
VERTEX
  5
A0A
  8
DATA
  6
CONTINUOUS
 62
     7
 10
60.369372400184488
 20
15.185525189440609
 30
0.0
  0
VERTEX
  5
A0B
  8
DATA
  6
CONTINUOUS
 62
     7
 10
60.369372400184488
 20
14.902535668335149
 30
0.0
  0
VERTEX
  5
A0C
  8
DATA
  6
CONTINUOUS
 62
     7
 10
60.369372400184488
 20
14.622149379316831
 30
0.0
  0
VERTEX
  5
A0D
  8
DATA
  6
CONTINUOUS
 62
     7
 10
60.369372400184488
 20
14.34436632238565
 30
0.0
  0
VERTEX
  5
A0E
  8
DATA
  6
CONTINUOUS
 62
     7
 10
60.369372400184488
 20
14.06918649754161
 30
0.0
  0
VERTEX
  5
A0F
  8
DATA
  6
CONTINUOUS
 62
     7
 10
60.369372400184488
 20
13.80807061089172
 30
0.0
  0
VERTEX
  5
A10
  8
DATA
  6
CONTINUOUS
 62
     7
 10
60.369372400184488
 20
13.572479368542989
 30
0.0
  0
VERTEX
  5
A11
  8
DATA
  6
CONTINUOUS
 62
     7
 10
60.369372400184488
 20
13.362412770495419
 30
0.0
  0
VERTEX
  5
A12
  8
DATA
  6
CONTINUOUS
 62
     7
 10
60.369372400184488
 20
13.17787081674901
 30
0.0
  0
VERTEX
  5
A13
  8
DATA
  6
CONTINUOUS
 62
     7
 10
60.369372400184488
 20
13.01885350730376
 30
0.0
  0
VERTEX
  5
A14
  8
DATA
  6
CONTINUOUS
 62
     7
 10
60.369372400184488
 20
12.88536084215967
 30
0.0
  0
VERTEX
  5
A15
  8
DATA
  6
CONTINUOUS
 62
     7
 10
60.369372400184488
 20
12.777392821316729
 30
0.0
  0
VERTEX
  5
A16
  8
DATA
  6
CONTINUOUS
 62
     7
 10
60.369372400184488
 20
12.69494944477495
 30
0.0
  0
VERTEX
  5
A17
  8
DATA
  6
CONTINUOUS
 62
     7
 10
60.369372400184488
 20
12.69494944477495
 30
0.0
  0
VERTEX
  5
A18
  8
DATA
  6
CONTINUOUS
 62
     7
 10
60.369372400184488
 20
12.69494944477495
 30
0.0
  0
VERTEX
  5
A19
  8
DATA
  6
CONTINUOUS
 62
     7
 10
60.369372400184488
 20
12.636834162712519
 30
0.0
  0
VERTEX
  5
A1A
  8
DATA
  6
CONTINUOUS
 62
     7
 10
60.409363906068002
 20
12.30455222102484
 30
0.0
  0
VERTEX
  5
A1B
  8
DATA
  6
CONTINUOUS
 62
     7
 10
60.471820173296138
 20
11.996845929480729
 30
0.0
  0
VERTEX
  5
A1C
  8
DATA
  6
CONTINUOUS
 62
     7
 10
60.556741201868888
 20
11.71371528808019
 30
0.0
  0
VERTEX
  5
A1D
  8
DATA
  6
CONTINUOUS
 62
     7
 10
60.664126991786283
 20
11.45516029682322
 30
0.0
  0
VERTEX
  5
A1E
  8
DATA
  6
CONTINUOUS
 62
     7
 10
60.793977543048278
 20
11.221180955709819
 30
0.0
  0
VERTEX
  5
A1F
  8
DATA
  6
CONTINUOUS
 62
     7
 10
60.946292855654917
 20
11.01177726473998
 30
0.0
  0
VERTEX
  5
A20
  8
DATA
  6
CONTINUOUS
 62
     7
 10
61.121072929606179
 20
10.82694922391372
 30
0.0
  0
VERTEX
  5
A21
  8
DATA
  6
CONTINUOUS
 62
     7
 10
61.318317764902083
 20
10.66669683323102
 30
0.0
  0
VERTEX
  5
A22
  8
DATA
  6
CONTINUOUS
 62
     7
 10
61.527742416387461
 20
10.52727002834402
 30
0.0
  0
VERTEX
  5
A23
  8
DATA
  6
CONTINUOUS
 62
     7
 10
61.739061938907177
 20
10.404918744904821
 30
0.0
  0
VERTEX
  5
A24
  8
DATA
  6
CONTINUOUS
 62
     7
 10
61.952276332461267
 20
10.29964298291344
 30
0.0
  0
VERTEX
  5
A25
  8
DATA
  6
CONTINUOUS
 62
     7
 10
62.167385597049702
 20
10.21144274236986
 30
0.0
  0
VERTEX
  5
A26
  8
DATA
  6
CONTINUOUS
 62
     7
 10
62.384389732672489
 20
10.14031802327411
 30
0.0
  0
VERTEX
  5
A27
  8
DATA
  6
CONTINUOUS
 62
     7
 10
62.603288739329606
 20
10.08626882562616
 30
0.0
  0
VERTEX
  5
A28
  8
DATA
  6
CONTINUOUS
 62
     7
 10
62.824082617021112
 20
10.04929514942603
 30
0.0
  0
VERTEX
  5
A29
  8
DATA
  6
CONTINUOUS
 62
     7
 10
63.046771365746963
 20
10.029396994673711
 30
0.0
  0
VERTEX
  5
A2A
  8
DATA
  6
CONTINUOUS
 62
     7
 10
63.046771365746963
 20
10.029396994673711
 30
0.0
  0
VERTEX
  5
A2B
  8
DATA
  6
CONTINUOUS
 62
     7
 10
63.106436297640698
 20
10.029396994673711
 30
0.0
  0
VERTEX
  5
A2C
  8
DATA
  6
CONTINUOUS
 62
     7
 10
63.106436297640698
 20
10.029396994673711
 30
0.0
  0
VERTEX
  5
A2D
  8
DATA
  6
CONTINUOUS
 62
     7
 10
63.227532071785632
 20
10.029396994673711
 30
0.0
  0
VERTEX
  5
A2E
  8
DATA
  6
CONTINUOUS
 62
     7
 10
63.38354703849425
 20
10.029396994673711
 30
0.0
  0
VERTEX
  5
A2F
  8
DATA
  6
CONTINUOUS
 62
     7
 10
63.57448119776658
 20
10.029396994673711
 30
0.0
  0
VERTEX
  5
A30
  8
DATA
  6
CONTINUOUS
 62
     7
 10
63.80033454960261
 20
10.029396994673711
 30
0.0
  0
VERTEX
  5
A31
  8
DATA
  6
CONTINUOUS
 62
     7
 10
64.061107094002352
 20
10.029396994673711
 30
0.0
  0
VERTEX
  5
A32
  8
DATA
  6
CONTINUOUS
 62
     7
 10
64.356798830965772
 20
10.029396994673711
 30
0.0
  0
VERTEX
  5
A33
  8
DATA
  6
CONTINUOUS
 62
     7
 10
64.687409760492883
 20
10.029396994673711
 30
0.0
  0
VERTEX
  5
A34
  8
DATA
  6
CONTINUOUS
 62
     7
 10
65.052939882583715
 20
10.029396994673711
 30
0.0
  0
VERTEX
  5
A35
  8
DATA
  6
CONTINUOUS
 62
     7
 10
65.437913617230208
 20
10.029396994673711
 30
0.0
  0
VERTEX
  5
A36
  8
DATA
  6
CONTINUOUS
 62
     7
 10
65.82685538442432
 20
10.029396994673711
 30
0.0
  0
VERTEX
  5
A37
  8
DATA
  6
CONTINUOUS
 62
     7
 10
66.219765184166022
 20
10.029396994673711
 30
0.0
  0
VERTEX
  5
A38
  8
DATA
  6
CONTINUOUS
 62
     7
 10
66.616643016455356
 20
10.029396994673711
 30
0.0
  0
VERTEX
  5
A39
  8
DATA
  6
CONTINUOUS
 62
     7
 10
67.01748888129228
 20
10.029396994673711
 30
0.0
  0
VERTEX
  5
A3A
  8
DATA
  6
CONTINUOUS
 62
     7
 10
67.422302778676851
 20
10.029396994673711
 30
0.0
  0
VERTEX
  5
A3B
  8
DATA
  6
CONTINUOUS
 62
     7
 10
67.831084708609012
 20
10.029396994673711
 30
0.0
  0
VERTEX
  5
A3C
  8
DATA
  6
CONTINUOUS
 62
     7
 10
68.243834671088791
 20
10.029396994673711
 30
0.0
  0
VERTEX
  5
A3D
  8
DATA
  6
CONTINUOUS
 62
     7
 10
68.66272068296135
 20
10.029396994673711
 30
0.0
  0
VERTEX
  5
A3E
  8
DATA
  6
CONTINUOUS
 62
     7
 10
69.08991076107182
 20
10.029396994673711
 30
0.0
  0
VERTEX
  5
A3F
  8
DATA
  6
CONTINUOUS
 62
     7
 10
69.525404905420231
 20
10.029396994673711
 30
0.0
  0
VERTEX
  5
A40
  8
DATA
  6
CONTINUOUS
 62
     7
 10
69.969203116006568
 20
10.029396994673711
 30
0.0
  0
VERTEX
  5
A41
  8
DATA
  6
CONTINUOUS
 62
     7
 10
70.421305392830817
 20
10.029396994673711
 30
0.0
  0
VERTEX
  5
A42
  8
DATA
  6
CONTINUOUS
 62
     7
 10
70.881711735892978
 20
10.029396994673711
 30
0.0
  0
VERTEX
  5
A43
  8
DATA
  6
CONTINUOUS
 62
     7
 10
71.350422145193107
 20
10.029396994673711
 30
0.0
  0
VERTEX
  5
A44
  8
DATA
  6
CONTINUOUS
 62
     7
 10
71.827436620731135
 20
10.029396994673711
 30
0.0
  0
VERTEX
  5
A45
  8
DATA
  6
CONTINUOUS
 62
     7
 10
72.309986814638108
 20
10.02939699467373
 30
0.0
  0
VERTEX
  5
A46
  8
DATA
  6
CONTINUOUS
 62
     7
 10
72.795304379045021
 20
10.0293969946738
 30
0.0
  0
VERTEX
  5
A47
  8
DATA
  6
CONTINUOUS
 62
     7
 10
73.283389313951901
 20
10.02939699467391
 30
0.0
  0
VERTEX
  5
A48
  8
DATA
  6
CONTINUOUS
 62
     7
 10
73.774241619358733
 20
10.02939699467407
 30
0.0
  0
VERTEX
  5
A49
  8
DATA
  6
CONTINUOUS
 62
     7
 10
74.267861295265504
 20
10.02939699467427
 30
0.0
  0
VERTEX
  5
A4A
  8
DATA
  6
CONTINUOUS
 62
     7
 10
74.764248341672229
 20
10.029396994674521
 30
0.0
  0
VERTEX
  5
A4B
  8
DATA
  6
CONTINUOUS
 62
     7
 10
75.26340275857892
 20
10.029396994674819
 30
0.0
  0
VERTEX
  5
A4C
  8
DATA
  6
CONTINUOUS
 62
     7
 10
75.76532454598555
 20
10.02939699467516
 30
0.0
  0
VERTEX
  5
A4D
  8
DATA
  6
CONTINUOUS
 62
     7
 10
76.267247271716457
 20
10.029396994675469
 30
0.0
  0
VERTEX
  5
A4E
  8
DATA
  6
CONTINUOUS
 62
     7
 10
76.766404503595908
 20
10.0293969946757
 30
0.0
  0
VERTEX
  5
A4F
  8
DATA
  6
CONTINUOUS
 62
     7
 10
77.262796241623931
 20
10.029396994675841
 30
0.0
  0
VERTEX
  5
A50
  8
DATA
  6
CONTINUOUS
 62
     7
 10
77.756422485800542
 20
10.02939699467588
 30
0.0
  0
VERTEX
  5
A51
  8
DATA
  6
CONTINUOUS
 62
     7
 10
78.247283236125739
 20
10.029396994675841
 30
0.0
  0
VERTEX
  5
A52
  8
DATA
  6
CONTINUOUS
 62
     7
 10
78.735378492599494
 20
10.0293969946757
 30
0.0
  0
VERTEX
  5
A53
  8
DATA
  6
CONTINUOUS
 62
     7
 10
79.220708255221794
 20
10.029396994675469
 30
0.0
  0
VERTEX
  5
A54
  8
DATA
  6
CONTINUOUS
 62
     7
 10
79.703272523992695
 20
10.02939699467516
 30
0.0
  0
VERTEX
  5
A55
  8
DATA
  6
CONTINUOUS
 62
     7
 10
80.180296980848794
 20
10.02939699467484
 30
0.0
  0
VERTEX
  5
A56
  8
DATA
  6
CONTINUOUS
 62
     7
 10
80.64900730772672
 20
10.02939699467461
 30
0.0
  0
VERTEX
  5
A57
  8
DATA
  6
CONTINUOUS
 62
     7
 10
81.109403504626513
 20
10.02939699467448
 30
0.0
  0
VERTEX
  5
A58
  8
DATA
  6
CONTINUOUS
 62
     7
 10
81.56148557154809
 20
10.02939699467443
 30
0.0
  0
VERTEX
  5
A59
  8
DATA
  6
CONTINUOUS
 62
     7
 10
82.005253508491535
 20
10.02939699467448
 30
0.0
  0
VERTEX
  5
A5A
  8
DATA
  6
CONTINUOUS
 62
     7
 10
82.440707315456834
 20
10.02939699467461
 30
0.0
  0
VERTEX
  5
A5B
  8
DATA
  6
CONTINUOUS
 62
     7
 10
82.867846992443916
 20
10.02939699467484
 30
0.0
  0
VERTEX
  5
A5C
  8
DATA
  6
CONTINUOUS
 62
     7
 10
83.286672539452894
 20
10.02939699467516
 30
0.0
  0
VERTEX
  5
A5D
  8
DATA
  6
CONTINUOUS
 62
     7
 10
83.699509559975795
 20
10.029396994675469
 30
0.0
  0
VERTEX
  5
A5E
  8
DATA
  6
CONTINUOUS
 62
     7
 10
84.108683657504713
 20
10.0293969946757
 30
0.0
  0
VERTEX
  5
A5F
  8
DATA
  6
CONTINUOUS
 62
     7
 10
84.514194832039749
 20
10.029396994675841
 30
0.0
  0
VERTEX
  5
A60
  8
DATA
  6
CONTINUOUS
 62
     7
 10
84.916043083580817
 20
10.02939699467588
 30
0.0
  0
VERTEX
  5
A61
  8
DATA
  6
CONTINUOUS
 62
     7
 10
85.314228412127946
 20
10.029396994675841
 30
0.0
  0
VERTEX
  5
A62
  8
DATA
  6
CONTINUOUS
 62
     7
 10
85.708750817681164
 20
10.0293969946757
 30
0.0
  0
VERTEX
  5
A63
  8
DATA
  6
CONTINUOUS
 62
     7
 10
86.0996103002404
 20
10.029396994675469
 30
0.0
  0
VERTEX
  5
A64
  8
DATA
  6
CONTINUOUS
 62
     7
 10
86.486806859805696
 20
10.02939699467516
 30
0.0
  0
VERTEX
  5
A65
  8
DATA
  6
CONTINUOUS
 62
     7
 10
86.854214510479181
 20
10.029396994674819
 30
0.0
  0
VERTEX
  5
A66
  8
DATA
  6
CONTINUOUS
 62
     7
 10
87.185707266362996
 20
10.029396994674521
 30
0.0
  0
VERTEX
  5
A67
  8
DATA
  6
CONTINUOUS
 62
     7
 10
87.481285127457085
 20
10.02939699467427
 30
0.0
  0
VERTEX
  5
A68
  8
DATA
  6
CONTINUOUS
 62
     7
 10
87.740948093761489
 20
10.02939699467407
 30
0.0
  0
VERTEX
  5
A69
  8
DATA
  6
CONTINUOUS
 62
     7
 10
87.964696165276209
 20
10.02939699467391
 30
0.0
  0
VERTEX
  5
A6A
  8
DATA
  6
CONTINUOUS
 62
     7
 10
88.152529342001245
 20
10.0293969946738
 30
0.0
  0
VERTEX
  5
A6B
  8
DATA
  6
CONTINUOUS
 62
     7
 10
88.304447623936596
 20
10.02939699467373
 30
0.0
  0
VERTEX
  5
A6C
  8
DATA
  6
CONTINUOUS
 62
     7
 10
88.420451011082207
 20
10.029396994673711
 30
0.0
  0
VERTEX
  5
A6D
  8
DATA
  6
CONTINUOUS
 62
     7
 10
88.420451011082207
 20
10.029396994673711
 30
0.0
  0
VERTEX
  5
A6E
  8
DATA
  6
CONTINUOUS
 62
     7
 10
88.420451011082207
 20
10.029396994673711
 30
0.0
  0
VERTEX
  5
A6F
  8
DATA
  6
CONTINUOUS
 62
     7
 10
88.447907802395022
 20
10.029396994673711
 30
0.0
  0
VERTEX
  5
A70
  8
DATA
  6
CONTINUOUS
 62
     7
 10
88.683235246964685
 20
10.043295931613359
 30
0.0
  0
VERTEX
  5
A71
  8
DATA
  6
CONTINUOUS
 62
     7
 10
88.899875513753429
 20
10.06512986026584
 30
0.0
  0
VERTEX
  5
A72
  8
DATA
  6
CONTINUOUS
 62
     7
 10
89.097828602761297
 20
10.09489878063116
 30
0.0
  0
VERTEX
  5
A73
  8
DATA
  6
CONTINUOUS
 62
     7
 10
89.277094513988246
 20
10.1326026927093
 30
0.0
  0
VERTEX
  5
A74
  8
DATA
  6
CONTINUOUS
 62
     7
 10
89.437673247434304
 20
10.17824159650028
 30
0.0
  0
VERTEX
  5
A75
  8
DATA
  6
CONTINUOUS
 62
     7
 10
89.579564803099444
 20
10.231815492004079
 30
0.0
  0
VERTEX
  5
A76
  8
DATA
  6
CONTINUOUS
 62
     7
 10
89.702769180983694
 20
10.29332437922071
 30
0.0
  0
VERTEX
  5
A77
  8
DATA
  6
CONTINUOUS
 62
     7
 10
89.807286381087096
 20
10.362768258150171
 30
0.0
  0
VERTEX
  5
A78
  8
DATA
  6
CONTINUOUS
 62
     7
 10
89.90367280823628
 20
10.438056435055151
 30
0.0
  0
VERTEX
  5
A79
  8
DATA
  6
CONTINUOUS
 62
     7
 10
90.002484867257934
 20
10.51709821619832
 30
0.0
  0
VERTEX
  5
A7A
  8
DATA
  6
CONTINUOUS
 62
     7
 10
90.103722558152086
 20
10.59989360157968
 30
0.0
  0
VERTEX
  5
A7B
  8
DATA
  6
CONTINUOUS
 62
     7
 10
90.207385880918707
 20
10.68644259119924
 30
0.0
  0
VERTEX
  5
A7C
  8
DATA
  6
CONTINUOUS
 62
     7
 10
90.313474835557884
 20
10.776745185057001
 30
0.0
  0
VERTEX
  5
A7D
  8
DATA
  6
CONTINUOUS
 62
     7
 10
90.421989422069544
 20
10.87080138315295
 30
0.0
  0
VERTEX
  5
A7E
  8
DATA
  6
CONTINUOUS
 62
     7
 10
90.532929640453702
 20
10.9686111854871
 30
0.0
  0
VERTEX
  5
A7F
  8
DATA
  6
CONTINUOUS
 62
     7
 10
90.646295490710344
 20
11.070174592059439
 30
0.0
  0
VERTEX
  5
A80
  8
DATA
  6
CONTINUOUS
 62
     7
 10
90.754538275924673
 20
11.18558164284544
 30
0.0
  0
VERTEX
  5
A81
  8
DATA
  6
CONTINUOUS
 62
     7
 10
90.85010929918171
 20
11.32492237782059
 30
0.0
  0
VERTEX
  5
A82
  8
DATA
  6
CONTINUOUS
 62
     7
 10
90.933008560481568
 20
11.48819679698487
 30
0.0
  0
VERTEX
  5
A83
  8
DATA
  6
CONTINUOUS
 62
     7
 10
91.003236059824147
 20
11.6754049003383
 30
0.0
  0
VERTEX
  5
A84
  8
DATA
  6
CONTINUOUS
 62
     7
 10
91.060791797209575
 20
11.886546687880861
 30
0.0
  0
VERTEX
  5
A85
  8
DATA
  6
CONTINUOUS
 62
     7
 10
91.105675772637696
 20
12.12162215961256
 30
0.0
  0
VERTEX
  5
A86
  8
DATA
  6
CONTINUOUS
 62
     7
 10
91.137887986108623
 20
12.3806313155334
 30
0.0
  0
VERTEX
  5
A87
  8
DATA
  6
CONTINUOUS
 62
     7
 10
91.157428437622286
 20
12.66357415564338
 30
0.0
  0
VERTEX
  5
A88
  8
DATA
  6
CONTINUOUS
 62
     7
 10
91.157428437622286
 20
12.66357415564338
 30
0.0
  0
VERTEX
  5
A89
  8
DATA
  6
CONTINUOUS
 62
     7
 10
91.157428437622286
 20
12.69494944477495
 30
0.0
  0
VERTEX
  5
A8A
  8
DATA
  6
CONTINUOUS
 62
     7
 10
91.157428437622286
 20
12.69494944477495
 30
0.0
  0
VERTEX
  5
A8B
  8
DATA
  6
CONTINUOUS
 62
     7
 10
91.157428437622286
 20
12.781191376792449
 30
0.0
  0
VERTEX
  5
A8C
  8
DATA
  6
CONTINUOUS
 62
     7
 10
91.157428437622286
 20
12.892251443638671
 30
0.0
  0
VERTEX
  5
A8D
  8
DATA
  6
CONTINUOUS
 62
     7
 10
91.157428437622286
 20
13.02812964531361
 30
0.0
  0
VERTEX
  5
A8E
  8
DATA
  6
CONTINUOUS
 62
     7
 10
91.157428437622286
 20
13.188825981817279
 30
0.0
  0
VERTEX
  5
A8F
  8
DATA
  6
CONTINUOUS
 62
     7
 10
91.157428437622286
 20
13.374340453149671
 30
0.0
  0
VERTEX
  5
A90
  8
DATA
  6
CONTINUOUS
 62
     7
 10
91.157428437622286
 20
13.58467305931079
 30
0.0
  0
VERTEX
  5
A91
  8
DATA
  6
CONTINUOUS
 62
     7
 10
91.157428437622286
 20
13.819823800300631
 30
0.0
  0
VERTEX
  5
A92
  8
DATA
  6
CONTINUOUS
 62
     7
 10
91.157428437622286
 20
14.07979267611919
 30
0.0
  0
VERTEX
  5
A93
  8
DATA
  6
CONTINUOUS
 62
     7
 10
91.157428437622286
 20
14.353568184851859
 30
0.0
  0
VERTEX
  5
A94
  8
DATA
  6
CONTINUOUS
 62
     7
 10
91.157428437622244
 20
14.63013882458403
 30
0.0
  0
VERTEX
  5
A95
  8
DATA
  6
CONTINUOUS
 62
     7
 10
91.157428437622187
 20
14.90950459531569
 30
0.0
  0
VERTEX
  5
A96
  8
DATA
  6
CONTINUOUS
 62
     7
 10
91.157428437622073
 20
15.191665497046859
 30
0.0
  0
VERTEX
  5
A97
  8
DATA
  6
CONTINUOUS
 62
     7
 10
91.157428437621974
 20
15.476621529777519
 30
0.0
  0
VERTEX
  5
A98
  8
DATA
  6
CONTINUOUS
 62
     7
 10
91.15742843762186
 20
15.764372693507671
 30
0.0
  0
VERTEX
  5
A99
  8
DATA
  6
CONTINUOUS
 62
     7
 10
91.157428437621704
 20
16.054918988237318
 30
0.0
  0
VERTEX
  5
A9A
  8
DATA
  6
CONTINUOUS
 62
     7
 10
91.157428437621562
 20
16.348260413966461
 30
0.0
  0
VERTEX
  5
A9B
  8
DATA
  6
CONTINUOUS
 62
     7
 10
91.157428437621334
 20
16.64595100759276
 30
0.0
  0
VERTEX
  5
A9C
  8
DATA
  6
CONTINUOUS
 62
     7
 10
91.157428437621235
 20
16.949544806013861
 30
0.0
  0
VERTEX
  5
A9D
  8
DATA
  6
CONTINUOUS
 62
     7
 10
91.157428437621149
 20
17.259041809229771
 30
0.0
  0
VERTEX
  5
A9E
  8
DATA
  6
CONTINUOUS
 62
     7
 10
91.157428437621107
 20
17.574442017240489
 30
0.0
  0
VERTEX
  5
A9F
  8
DATA
  6
CONTINUOUS
 62
     7
 10
91.157428437621149
 20
17.895745430046009
 30
0.0
  0
VERTEX
  5
AA0
  8
DATA
  6
CONTINUOUS
 62
     7
 10
91.157428437621235
 20
18.222952047646341
 30
0.0
  0
VERTEX
  5
AA1
  8
DATA
  6
CONTINUOUS
 62
     7
 10
91.157428437621334
 20
18.556061870041479
 30
0.0
  0
VERTEX
  5
AA2
  8
DATA
  6
CONTINUOUS
 62
     7
 10
91.157428437621562
 20
18.89507489723141
 30
0.0
  0
VERTEX
  5
AA3
  8
DATA
  6
CONTINUOUS
 62
     7
 10
91.157428437621704
 20
19.238023038826501
 30
0.0
  0
VERTEX
  5
AA4
  8
DATA
  6
CONTINUOUS
 62
     7
 10
91.157428437621803
 20
19.582938204437049
 30
0.0
  0
VERTEX
  5
AA5
  8
DATA
  6
CONTINUOUS
 62
     7
 10
91.157428437621874
 20
19.929820394063078
 30
0.0
  0
VERTEX
  5
AA6
  8
DATA
  6
CONTINUOUS
 62
     7
 10
91.157428437621888
 20
20.2786696077046
 30
0.0
  0
VERTEX
  5
AA7
  8
DATA
  6
CONTINUOUS
 62
     7
 10
91.157428437621874
 20
20.629485845361589
 30
0.0
  0
VERTEX
  5
AA8
  8
DATA
  6
CONTINUOUS
 62
     7
 10
91.157428437621803
 20
20.98226910703405
 30
0.0
  0
VERTEX
  5
AA9
  8
DATA
  6
CONTINUOUS
 62
     7
 10
91.157428437621704
 20
21.337019392721981
 30
0.0
  0
VERTEX
  5
AAA
  8
DATA
  6
CONTINUOUS
 62
     7
 10
91.157428437621562
 20
21.69373670242539
 30
0.0
  0
VERTEX
  5
AAB
  8
DATA
  6
CONTINUOUS
 62
     7
 10
91.157428437621334
 20
22.050453936818428
 30
0.0
  0
VERTEX
  5
AAC
  8
DATA
  6
CONTINUOUS
 62
     7
 10
91.157428437621235
 20
22.40520399657526
 30
0.0
  0
VERTEX
  5
AAD
  8
DATA
  6
CONTINUOUS
 62
     7
 10
91.157428437621149
 20
22.757986881695881
 30
0.0
  0
VERTEX
  5
AAE
  8
DATA
  6
CONTINUOUS
 62
     7
 10
91.157428437621107
 20
23.108802592180279
 30
0.0
  0
VERTEX
  5
AAF
  8
DATA
  6
CONTINUOUS
 62
     7
 10
91.157428437621149
 20
23.45765112802847
 30
0.0
  0
VERTEX
  5
AB0
  8
DATA
  6
CONTINUOUS
 62
     7
 10
91.157428437621235
 20
23.804532489240451
 30
0.0
  0
VERTEX
  5
AB1
  8
DATA
  6
CONTINUOUS
 62
     7
 10
91.157428437621334
 20
24.149446675816211
 30
0.0
  0
VERTEX
  5
AB2
  8
DATA
  6
CONTINUOUS
 62
     7
 10
91.157428437621562
 20
24.492393687755769
 30
0.0
  0
VERTEX
  5
AB3
  8
DATA
  6
CONTINUOUS
 62
     7
 10
91.157428437621704
 20
24.831406315787799
 30
0.0
  0
VERTEX
  5
AB4
  8
DATA
  6
CONTINUOUS
 62
     7
 10
91.15742843762186
 20
25.16451735064102
 30
0.0
  0
VERTEX
  5
AB5
  8
DATA
  6
CONTINUOUS
 62
     7
 10
91.157428437621974
 20
25.491726792315411
 30
0.0
  0
VERTEX
  5
AB6
  8
DATA
  6
CONTINUOUS
 62
     7
 10
91.157428437622073
 20
25.81303464081099
 30
0.0
  0
VERTEX
  5
AB7
  8
DATA
  6
CONTINUOUS
 62
     7
 10
91.157428437622187
 20
26.128440896127749
 30
0.0
  0
VERTEX
  5
AB8
  8
DATA
  6
CONTINUOUS
 62
     7
 10
91.157428437622244
 20
26.437945558265689
 30
0.0
  0
VERTEX
  5
AB9
  8
DATA
  6
CONTINUOUS
 62
     7
 10
91.157428437622286
 20
26.741548627224809
 30
0.0
  0
VERTEX
  5
ABA
  8
DATA
  6
CONTINUOUS
 62
     7
 10
91.157428437622286
 20
27.039250103005109
 30
0.0
  0
VERTEX
  5
ABB
  8
DATA
  6
CONTINUOUS
 62
     7
 10
91.157428437622286
 20
27.332678729905719
 30
0.0
  0
VERTEX
  5
ABC
  8
DATA
  6
CONTINUOUS
 62
     7
 10
91.157428437622286
 20
27.62346325222579
 30
0.0
  0
VERTEX
  5
ABD
  8
DATA
  6
CONTINUOUS
 62
     7
 10
91.157428437622286
 20
27.911603669965292
 30
0.0
  0
VERTEX
  5
ABE
  8
DATA
  6
CONTINUOUS
 62
     7
 10
91.157428437622286
 20
28.19709998312425
 30
0.0
  0
VERTEX
  5
ABF
  8
DATA
  6
CONTINUOUS
 62
     7
 10
91.157428437622286
 20
28.479952191702669
 30
0.0
  0
VERTEX
  5
AC0
  8
DATA
  6
CONTINUOUS
 62
     7
 10
91.157428437622286
 20
28.760160295700519
 30
0.0
  0
VERTEX
  5
AC1
  8
DATA
  6
CONTINUOUS
 62
     7
 10
91.157428437622286
 20
29.037724295117819
 30
0.0
  0
VERTEX
  5
AC2
  8
DATA
  6
CONTINUOUS
 62
     7
 10
91.157428437622286
 20
29.31264418995459
 30
0.0
  0
VERTEX
  5
AC3
  8
DATA
  6
CONTINUOUS
 62
     7
 10
91.157428437622286
 20
29.573494257937359
 30
0.0
  0
VERTEX
  5
AC4
  8
DATA
  6
CONTINUOUS
 62
     7
 10
91.157428437622286
 20
29.80884877679269
 30
0.0
  0
VERTEX
  5
AC5
  8
DATA
  6
CONTINUOUS
 62
     7
 10
91.157428437622286
 20
30.018707746520601
 30
0.0
  0
VERTEX
  5
AC6
  8
DATA
  6
CONTINUOUS
 62
     7
 10
91.157428437622286
 20
30.203071167121092
 30
0.0
  0
VERTEX
  5
AC7
  8
DATA
  6
CONTINUOUS
 62
     7
 10
91.157428437622286
 20
30.361939038594151
 30
0.0
  0
VERTEX
  5
AC8
  8
DATA
  6
CONTINUOUS
 62
     7
 10
91.157428437622286
 20
30.49531136093977
 30
0.0
  0
VERTEX
  5
AC9
  8
DATA
  6
CONTINUOUS
 62
     7
 10
91.157428437622286
 20
30.603188134157971
 30
0.0
  0
VERTEX
  5
ACA
  8
DATA
  6
CONTINUOUS
 62
     7
 10
91.157428437622286
 20
30.685569358248749
 30
0.0
  0
VERTEX
  5
ACB
  8
DATA
  6
CONTINUOUS
 62
     7
 10
91.157428437622286
 20
30.685569358248749
 30
0.0
  0
VERTEX
  5
ACC
  8
DATA
  6
CONTINUOUS
 62
     7
 10
91.157428437622286
 20
30.685569358248749
 30
0.0
  0
VERTEX
  5
ACD
  8
DATA
  6
CONTINUOUS
 62
     7
 10
91.157428437622286
 20
30.74368464031118
 30
0.0
  0
VERTEX
  5
ACE
  8
DATA
  6
CONTINUOUS
 62
     7
 10
91.117445700247245
 20
31.075966581998181
 30
0.0
  0
VERTEX
  5
ACF
  8
DATA
  6
CONTINUOUS
 62
     7
 10
91.054998613160762
 20
31.383672873541691
 30
0.0
  0
VERTEX
  5
AD0
  8
DATA
  6
CONTINUOUS
 62
     7
 10
90.970087176362824
 20
31.666803514941741
 30
0.0
  0
VERTEX
  5
AD1
  8
DATA
  6
CONTINUOUS
 62
     7
 10
90.862711389853445
 20
31.925358506198311
 30
0.0
  0
VERTEX
  5
AD2
  8
DATA
  6
CONTINUOUS
 62
     7
 10
90.732871253632624
 20
32.159337847311392
 30
0.0
  0
VERTEX
  5
AD3
  8
DATA
  6
CONTINUOUS
 62
     7
 10
90.580566767700347
 20
32.368741538281
 30
0.0
  0
VERTEX
  5
AD4
  8
DATA
  6
CONTINUOUS
 62
     7
 10
90.405797932056601
 20
32.553569579107133
 30
0.0
  0
VERTEX
  5
AD5
  8
DATA
  6
CONTINUOUS
 62
     7
 10
90.208564746701427
 20
32.71382196978977
 30
0.0
  0
VERTEX
  5
AD6
  8
DATA
  6
CONTINUOUS
 62
     7
 10
89.999150597291873
 20
32.853248774676793
 30
0.0
  0
VERTEX
  5
AD7
  8
DATA
  6
CONTINUOUS
 62
     7
 10
89.787838869485086
 20
32.975600058115973
 30
0.0
  0
VERTEX
  5
AD8
  8
DATA
  6
CONTINUOUS
 62
     7
 10
89.574629563280979
 20
33.080875820107352
 30
0.0
  0
VERTEX
  5
AD9
  8
DATA
  6
CONTINUOUS
 62
     7
 10
89.359522678679696
 20
33.169076060650923
 30
0.0
  0
VERTEX
  5
ADA
  8
DATA
  6
CONTINUOUS
 62
     7
 10
89.142518215681093
 20
33.240200779746679
 30
0.0
  0
VERTEX
  5
ADB
  8
DATA
  6
CONTINUOUS
 62
     7
 10
88.923616174285243
 20
33.294249977394628
 30
0.0
  0
VERTEX
  5
ADC
  8
DATA
  6
CONTINUOUS
 62
     7
 10
88.702816554492088
 20
33.331223653594762
 30
0.0
  0
VERTEX
  5
ADD
  8
DATA
  6
CONTINUOUS
 62
     7
 10
88.480119356301714
 20
33.351121808347081
 30
0.0
  0
VERTEX
  5
ADE
  8
DATA
  6
CONTINUOUS
 62
     7
 10
88.480119356301714
 20
33.351121808347081
 30
0.0
  0
VERTEX
  5
ADF
  8
DATA
  6
CONTINUOUS
 62
     7
 10
88.420451011082207
 20
33.351121808347081
 30
0.0
  0
SEQEND
  5
AE0
  8
DATA
  6
CONTINUOUS
 62
     7
  0
POLYLINE
  5
2C6
  8
DATA
  6
CONTINUOUS
 62
     7
 66
     1
 10
0.0
 20
0.0
 30
0.0
 70
   128
  0
VERTEX
  5
AE1
  8
DATA
  6
CONTINUOUS
 62
     7
 10
87.437933572475316
 20
24.617555490103669
 30
0.0
  0
VERTEX
  5
AE2
  8
DATA
  6
CONTINUOUS
 62
     7
 10
87.400646265334714
 20
24.656793056091988
 30
0.0
  0
VERTEX
  5
AE3
  8
DATA
  6
CONTINUOUS
 62
     7
 10
87.348798465766436
 20
24.71135268007453
 30
0.0
  0
VERTEX
  5
AE4
  8
DATA
  6
CONTINUOUS
 62
     7
 10
87.282390173770452
 20
24.781234362051318
 30
0.0
  0
VERTEX
  5
AE5
  8
DATA
  6
CONTINUOUS
 62
     7
 10
87.201421389346734
 20
24.86643810202235
 30
0.0
  0
VERTEX
  5
AE6
  8
DATA
  6
CONTINUOUS
 62
     7
 10
87.105892112495326
 20
24.966963899987611
 30
0.0
  0
VERTEX
  5
AE7
  8
DATA
  6
CONTINUOUS
 62
     7
 10
86.995802343216184
 20
25.08281175594713
 30
0.0
  0
VERTEX
  5
AE8
  8
DATA
  6
CONTINUOUS
 62
     7
 10
86.871152081509308
 20
25.213981669900871
 30
0.0
  0
VERTEX
  5
AE9
  8
DATA
  6
CONTINUOUS
 62
     7
 10
86.731941327374727
 20
25.360473641848849
 30
0.0
  0
VERTEX
  5
AEA
  8
DATA
  6
CONTINUOUS
 62
     7
 10
86.584314503066793
 20
25.515821874388269
 30
0.0
  0
VERTEX
  5
AEB
  8
DATA
  6
CONTINUOUS
 62
     7
 10
86.434416030839884
 20
25.673560570116329
 30
0.0
  0
VERTEX
  5
AEC
  8
DATA
  6
CONTINUOUS
 62
     7
 10
86.282245910694002
 20
25.833689729033029
 30
0.0
  0
VERTEX
  5
AED
  8
DATA
  6
CONTINUOUS
 62
     7
 10
86.127804142629159
 20
25.996209351138369
 30
0.0
  0
VERTEX
  5
AEE
  8
DATA
  6
CONTINUOUS
 62
     7
 10
85.971090726645343
 20
26.161119436432351
 30
0.0
  0
VERTEX
  5
AEF
  8
DATA
  6
CONTINUOUS
 62
     7
 10
85.812105662742553
 20
26.328419984914969
 30
0.0
  0
VERTEX
  5
AF0
  8
DATA
  6
CONTINUOUS
 62
     7
 10
85.650848950920746
 20
26.498110996586231
 30
0.0
  0
VERTEX
  5
AF1
  8
DATA
  6
CONTINUOUS
 62
     7
 10
85.487320591180023
 20
26.670192471446121
 30
0.0
  0
VERTEX
  5
AF2
  8
DATA
  6
CONTINUOUS
 62
     7
 10
85.323377515734862
 20
26.842710353117521
 30
0.0
  0
VERTEX
  5
AF3
  8
DATA
  6
CONTINUOUS
 62
     7
 10
85.160876656799843
 20
27.013710585223311
 30
0.0
  0
VERTEX
  5
AF4
  8
DATA
  6
CONTINUOUS
 62
     7
 10
84.999818014374938
 20
27.183193167763481
 30
0.0
  0
VERTEX
  5
AF5
  8
DATA
  6
CONTINUOUS
 62
     7
 10
84.840201588460161
 20
27.351158100738029
 30
0.0
  0
VERTEX
  5
AF6
  8
DATA
  6
CONTINUOUS
 62
     7
 10
84.682027379055484
 20
27.517605384146972
 30
0.0
  0
VERTEX
  5
AF7
  8
DATA
  6
CONTINUOUS
 62
     7
 10
84.525295386160991
 20
27.682535017990279
 30
0.0
  0
VERTEX
  5
AF8
  8
DATA
  6
CONTINUOUS
 62
     7
 10
84.370005609776612
 20
27.84594700226797
 30
0.0
  0
VERTEX
  5
AF9
  8
DATA
  6
CONTINUOUS
 62
     7
 10
84.216158049902347
 20
28.007841336980061
 30
0.0
  0
VERTEX
  5
AFA
  8
DATA
  6
CONTINUOUS
 62
     7
 10
84.067510818112495
 20
28.164263347943852
 30
0.0
  0
VERTEX
  5
AFB
  8
DATA
  6
CONTINUOUS
 62
     7
 10
83.927822025981499
 20
28.311258360976701
 30
0.0
  0
VERTEX
  5
AFC
  8
DATA
  6
CONTINUOUS
 62
     7
 10
83.797091673509257
 20
28.448826376078621
 30
0.0
  0
VERTEX
  5
AFD
  8
DATA
  6
CONTINUOUS
 62
     7
 10
83.675319760695785
 20
28.57696739324961
 30
0.0
  0
VERTEX
  5
AFE
  8
DATA
  6
CONTINUOUS
 62
     7
 10
83.562506287541083
 20
28.695681412489641
 30
0.0
  0
VERTEX
  5
AFF
  8
DATA
  6
CONTINUOUS
 62
     7
 10
83.458651254045193
 20
28.804968433798749
 30
0.0
  0
VERTEX
  5
B00
  8
DATA
  6
CONTINUOUS
 62
     7
 10
83.363754660208016
 20
28.904828457176912
 30
0.0
  0
VERTEX
  5
B01
  8
DATA
  6
CONTINUOUS
 62
     7
 10
83.277816506029694
 20
28.99526148262413
 30
0.0
  0
VERTEX
  5
B02
  8
DATA
  6
CONTINUOUS
 62
     7
 10
83.200554285284184
 20
29.07656479244719
 30
0.0
  0
VERTEX
  5
B03
  8
DATA
  6
CONTINUOUS
 62
     7
 10
83.131685491745685
 20
29.149035668952841
 30
0.0
  0
VERTEX
  5
B04
  8
DATA
  6
CONTINUOUS
 62
     7
 10
83.071210125414197
 20
29.212674112141109
 30
0.0
  0
VERTEX
  5
B05
  8
DATA
  6
CONTINUOUS
 62
     7
 10
83.019128186289649
 20
29.267480122011971
 30
0.0
  0
VERTEX
  5
B06
  8
DATA
  6
CONTINUOUS
 62
     7
 10
82.975439674372083
 20
29.31345369856545
 30
0.0
  0
VERTEX
  5
B07
  8
DATA
  6
CONTINUOUS
 62
     7
 10
82.940144589661472
 20
29.35059484180152
 30
0.0
  0
VERTEX
  5
B08
  8
DATA
  6
CONTINUOUS
 62
     7
 10
82.913242932157857
 20
29.3789035517202
 30
0.0
  0
VERTEX
  5
B09
  8
DATA
  6
CONTINUOUS
 62
     7
 10
82.894734701861196
 20
29.398379828321481
 30
0.0
  0
VERTEX
  5
B0A
  8
DATA
  6
CONTINUOUS
 62
     7
 10
82.894734701861196
 20
29.398379828321481
 30
0.0
  0
VERTEX
  5
B0B
  8
DATA
  6
CONTINUOUS
 62
     7
 10
82.894734701861196
 20
29.398379828321481
 30
0.0
  0
VERTEX
  5
B0C
  8
DATA
  6
CONTINUOUS
 62
     7
 10
82.884822034554816
 20
29.408564988008148
 30
0.0
  0
VERTEX
  5
B0D
  8
DATA
  6
CONTINUOUS
 62
     7
 10
82.771976168869074
 20
29.509634301017041
 30
0.0
  0
VERTEX
  5
B0E
  8
DATA
  6
CONTINUOUS
 62
     7
 10
82.65173493448404
 20
29.598072836259199
 30
0.0
  0
VERTEX
  5
B0F
  8
DATA
  6
CONTINUOUS
 62
     7
 10
82.524098331399813
 20
29.673880593734651
 30
0.0
  0
VERTEX
  5
B10
  8
DATA
  6
CONTINUOUS
 62
     7
 10
82.389066359616294
 20
29.737057573443369
 30
0.0
  0
VERTEX
  5
B11
  8
DATA
  6
CONTINUOUS
 62
     7
 10
82.246639019133553
 20
29.787603775385382
 30
0.0
  0
VERTEX
  5
B12
  8
DATA
  6
CONTINUOUS
 62
     7
 10
82.096816309951535
 20
29.825519199560659
 30
0.0
  0
VERTEX
  5
B13
  8
DATA
  6
CONTINUOUS
 62
     7
 10
81.939598232070296
 20
29.850803845969232
 30
0.0
  0
VERTEX
  5
B14
  8
DATA
  6
CONTINUOUS
 62
     7
 10
81.774984785489806
 20
29.863457714611069
 30
0.0
  0
VERTEX
  5
B15
  8
DATA
  6
CONTINUOUS
 62
     7
 10
81.774984785489806
 20
29.863457714611069
 30
0.0
  0
VERTEX
  5
B16
  8
DATA
  6
CONTINUOUS
 62
     7
 10
81.758829014948603
 20
29.863457714611069
 30
0.0
  0
VERTEX
  5
B17
  8
DATA
  6
CONTINUOUS
 62
     7
 10
81.758829014948603
 20
29.863457714611069
 30
0.0
  0
VERTEX
  5
B18
  8
DATA
  6
CONTINUOUS
 62
     7
 10
81.713100332876351
 20
29.863457052566741
 30
0.0
  0
VERTEX
  5
B19
  8
DATA
  6
CONTINUOUS
 62
     7
 10
81.653746481126078
 20
29.863456193262149
 30
0.0
  0
VERTEX
  5
B1A
  8
DATA
  6
CONTINUOUS
 62
     7
 10
81.580767459697839
 20
29.863455136697318
 30
0.0
  0
VERTEX
  5
B1B
  8
DATA
  6
CONTINUOUS
 62
     7
 10
81.494163268591578
 20
29.863453882872228
 30
0.0
  0
VERTEX
  5
B1C
  8
DATA
  6
CONTINUOUS
 62
     7
 10
81.393933907807366
 20
29.863452431786889
 30
0.0
  0
VERTEX
  5
B1D
  8
DATA
  6
CONTINUOUS
 62
     7
 10
81.280079377345118
 20
29.863450783441291
 30
0.0
  0
VERTEX
  5
B1E
  8
DATA
  6
CONTINUOUS
 62
     7
 10
81.152599677204861
 20
29.86344893783545
 30
0.0
  0
VERTEX
  5
B1F
  8
DATA
  6
CONTINUOUS
 62
     7
 10
81.011494807386597
 20
29.86344689496935
 30
0.0
  0
VERTEX
  5
B20
  8
DATA
  6
CONTINUOUS
 62
     7
 10
80.862636806989684
 20
29.863444739856192
 30
0.0
  0
VERTEX
  5
B21
  8
DATA
  6
CONTINUOUS
 62
     7
 10
80.711897715113494
 20
29.863442557509181
 30
0.0
  0
VERTEX
  5
B22
  8
DATA
  6
CONTINUOUS
 62
     7
 10
80.559277531757942
 20
29.863440347928311
 30
0.0
  0
VERTEX
  5
B23
  8
DATA
  6
CONTINUOUS
 62
     7
 10
80.404776256923071
 20
29.86343811111357
 30
0.0
  0
VERTEX
  5
B24
  8
DATA
  6
CONTINUOUS
 62
     7
 10
80.248393890608895
 20
29.863435847064981
 30
0.0
  0
VERTEX
  5
B25
  8
DATA
  6
CONTINUOUS
 62
     7
 10
80.090130432815414
 20
29.863433555782532
 30
0.0
  0
VERTEX
  5
B26
  8
DATA
  6
CONTINUOUS
 62
     7
 10
79.929985883542614
 20
29.863431237266209
 30
0.0
  0
VERTEX
  5
B27
  8
DATA
  6
CONTINUOUS
 62
     7
 10
79.76796024279048
 20
29.863428891516051
 30
0.0
  0
VERTEX
  5
B28
  8
DATA
  6
CONTINUOUS
 62
     7
 10
79.596739354629122
 20
29.863426412640319
 30
0.0
  0
VERTEX
  5
B29
  8
DATA
  6
CONTINUOUS
 62
     7
 10
79.409009063128607
 20
29.86342369474734
 30
0.0
  0
VERTEX
  5
B2A
  8
DATA
  6
CONTINUOUS
 62
     7
 10
79.20476936828895
 20
29.86342073783711
 30
0.0
  0
VERTEX
  5
B2B
  8
DATA
  6
CONTINUOUS
 62
     7
 10
78.984020270110165
 20
29.863417541909641
 30
0.0
  0
VERTEX
  5
B2C
  8
DATA
  6
CONTINUOUS
 62
     7
 10
78.746761768592165
 20
29.86341410696491
 30
0.0
  0
VERTEX
  5
B2D
  8
DATA
  6
CONTINUOUS
 62
     7
 10
78.492993863735123
 20
29.86341043300293
 30
0.0
  0
VERTEX
  5
B2E
  8
DATA
  6
CONTINUOUS
 62
     7
 10
78.222716555538824
 20
29.863406520023691
 30
0.0
  0
VERTEX
  5
B2F
  8
DATA
  6
CONTINUOUS
 62
     7
 10
77.935929844003454
 20
29.86340236802722
 30
0.0
  0
VERTEX
  5
B30
  8
DATA
  6
CONTINUOUS
 62
     7
 10
77.639623904304017
 20
29.863398078214729
 30
0.0
  0
VERTEX
  5
B31
  8
DATA
  6
CONTINUOUS
 62
     7
 10
77.340788911615633
 20
29.863393751787491
 30
0.0
  0
VERTEX
  5
B32
  8
DATA
  6
CONTINUOUS
 62
     7
 10
77.039424865938258
 20
29.86338938874551
 30
0.0
  0
VERTEX
  5
B33
  8
DATA
  6
CONTINUOUS
 62
     7
 10
76.735531767271993
 20
29.86338498908875
 30
0.0
  0
VERTEX
  5
B34
  8
DATA
  6
CONTINUOUS
 62
     7
 10
76.429109615616781
 20
29.863380552817251
 30
0.0
  0
VERTEX
  5
B35
  8
DATA
  6
CONTINUOUS
 62
     7
 10
76.120158410972621
 20
29.86337607993098
 30
0.0
  0
VERTEX
  5
B36
  8
DATA
  6
CONTINUOUS
 62
     7
 10
75.808678153339542
 20
29.863371570429969
 30
0.0
  0
VERTEX
  5
B37
  8
DATA
  6
CONTINUOUS
 62
     7
 10
75.494668842717459
 20
29.86336702431419
 30
0.0
  0
VERTEX
  5
B38
  8
DATA
  6
CONTINUOUS
 62
     7
 10
75.180673457546135
 20
29.86336247840001
 30
0.0
  0
VERTEX
  5
B39
  8
DATA
  6
CONTINUOUS
 62
     7
 10
74.869234976265147
 20
29.863357969503781
 30
0.0
  0
VERTEX
  5
B3A
  8
DATA
  6
CONTINUOUS
 62
     7
 10
74.560353398874511
 20
29.863353497625489
 30
0.0
  0
VERTEX
  5
B3B
  8
DATA
  6
CONTINUOUS
 62
     7
 10
74.254028725374198
 20
29.863349062765138
 30
0.0
  0
VERTEX
  5
B3C
  8
DATA
  6
CONTINUOUS
 62
     7
 10
73.950260955764264
 20
29.863344664922749
 30
0.0
  0
VERTEX
  5
B3D
  8
DATA
  6
CONTINUOUS
 62
     7
 10
73.649050090044653
 20
29.863340304098291
 30
0.0
  0
VERTEX
  5
B3E
  8
DATA
  6
CONTINUOUS
 62
     7
 10
73.350396128215451
 20
29.863335980291769
 30
0.0
  0
VERTEX
  5
B3F
  8
DATA
  6
CONTINUOUS
 62
     7
 10
73.054299070276542
 20
29.863331693503209
 30
0.0
  0
VERTEX
  5
B40
  8
DATA
  6
CONTINUOUS
 62
     7
 10
72.764782848180218
 20
29.863327501989669
 30
0.0
  0
VERTEX
  5
B41
  8
DATA
  6
CONTINUOUS
 62
     7
 10
72.485871393878682
 20
29.86332346400825
 30
0.0
  0
VERTEX
  5
B42
  8
DATA
  6
CONTINUOUS
 62
     7
 10
72.217564707371892
 20
29.863319579558961
 30
0.0
  0
VERTEX
  5
B43
  8
DATA
  6
CONTINUOUS
 62
     7
 10
71.95986278865989
 20
29.86331584864179
 30
0.0
  0
VERTEX
  5
B44
  8
DATA
  6
CONTINUOUS
 62
     7
 10
71.712765637742649
 20
29.863312271256731
 30
0.0
  0
VERTEX
  5
B45
  8
DATA
  6
CONTINUOUS
 62
     7
 10
71.476273254620196
 20
29.8633088474038
 30
0.0
  0
VERTEX
  5
B46
  8
DATA
  6
CONTINUOUS
 62
     7
 10
71.250385639292503
 20
29.863305577082979
 30
0.0
  0
VERTEX
  5
B47
  8
DATA
  6
CONTINUOUS
 62
     7
 10
71.03510279175957
 20
29.863302460294278
 30
0.0
  0
VERTEX
  5
B48
  8
DATA
  6
CONTINUOUS
 62
     7
 10
70.835940390933843
 20
29.863299576891681
 30
0.0
  0
VERTEX
  5
B49
  8
DATA
  6
CONTINUOUS
 62
     7
 10
70.658414115727652
 20
29.86329700672913
 30
0.0
  0
VERTEX
  5
B4A
  8
DATA
  6
CONTINUOUS
 62
     7
 10
70.502523966141041
 20
29.863294749806641
 30
0.0
  0
VERTEX
  5
B4B
  8
DATA
  6
CONTINUOUS
 62
     7
 10
70.368269942173981
 20
29.8632928061242
 30
0.0
  0
VERTEX
  5
B4C
  8
DATA
  6
CONTINUOUS
 62
     7
 10
70.255652043826501
 20
29.86329117568182
 30
0.0
  0
VERTEX
  5
B4D
  8
DATA
  6
CONTINUOUS
 62
     7
 10
70.164670271098572
 20
29.86328985847949
 30
0.0
  0
VERTEX
  5
B4E
  8
DATA
  6
CONTINUOUS
 62
     7
 10
70.095324623990223
 20
29.863288854517229
 30
0.0
  0
VERTEX
  5
B4F
  8
DATA
  6
CONTINUOUS
 62
     7
 10
70.047615102501425
 20
29.863288163795009
 30
0.0
  0
VERTEX
  5
B50
  8
DATA
  6
CONTINUOUS
 62
     7
 10
70.047615102501425
 20
29.863288163795009
 30
0.0
  0
VERTEX
  5
B51
  8
DATA
  6
CONTINUOUS
 62
     7
 10
70.047615102501425
 20
29.863288163795009
 30
0.0
  0
VERTEX
  5
B52
  8
DATA
  6
CONTINUOUS
 62
     7
 10
70.040221475878127
 20
29.863288163795009
 30
0.0
  0
VERTEX
  5
B53
  8
DATA
  6
CONTINUOUS
 62
     7
 10
69.968462502906462
 20
29.863545704982752
 30
0.0
  0
VERTEX
  5
B54
  8
DATA
  6
CONTINUOUS
 62
     7
 10
69.896061544632673
 20
29.859730197651
 30
0.0
  0
VERTEX
  5
B55
  8
DATA
  6
CONTINUOUS
 62
     7
 10
69.823018601056773
 20
29.851841641799759
 30
0.0
  0
VERTEX
  5
B56
  8
DATA
  6
CONTINUOUS
 62
     7
 10
69.74933367217875
 20
29.839880037429051
 30
0.0
  0
VERTEX
  5
B57
  8
DATA
  6
CONTINUOUS
 62
     7
 10
69.675006757998574
 20
29.823845384538849
 30
0.0
  0
VERTEX
  5
B58
  8
DATA
  6
CONTINUOUS
 62
     7
 10
69.600037858516316
 20
29.803737683129171
 30
0.0
  0
VERTEX
  5
B59
  8
DATA
  6
CONTINUOUS
 62
     7
 10
69.524426973731934
 20
29.77955693320002
 30
0.0
  0
VERTEX
  5
B5A
  8
DATA
  6
CONTINUOUS
 62
     7
 10
69.448174103645442
 20
29.751303134751371
 30
0.0
  0
VERTEX
  5
B5B
  8
DATA
  6
CONTINUOUS
 62
     7
 10
69.372875008791567
 20
29.719365761125179
 30
0.0
  0
VERTEX
  5
B5C
  8
DATA
  6
CONTINUOUS
 62
     7
 10
69.300125449705092
 20
29.684134285663369
 30
0.0
  0
VERTEX
  5
B5D
  8
DATA
  6
CONTINUOUS
 62
     7
 10
69.229925426386018
 20
29.645608708365948
 30
0.0
  0
VERTEX
  5
B5E
  8
DATA
  6
CONTINUOUS
 62
     7
 10
69.162274938834315
 20
29.603789029232921
 30
0.0
  0
VERTEX
  5
B5F
  8
DATA
  6
CONTINUOUS
 62
     7
 10
69.097173987050013
 20
29.558675248264251
 30
0.0
  0
VERTEX
  5
B60
  8
DATA
  6
CONTINUOUS
 62
     7
 10
69.034622571033125
 20
29.510267365459988
 30
0.0
  0
VERTEX
  5
B61
  8
DATA
  6
CONTINUOUS
 62
     7
 10
68.97462069078361
 20
29.458565380820112
 30
0.0
  0
VERTEX
  5
B62
  8
DATA
  6
CONTINUOUS
 62
     7
 10
68.91716834630148
 20
29.40356929434461
 30
0.0
  0
VERTEX
  5
B63
  8
DATA
  6
CONTINUOUS
 62
     7
 10
68.91716834630148
 20
29.40356929434461
 30
0.0
  0
VERTEX
  5
B64
  8
DATA
  6
CONTINUOUS
 62
     7
 10
68.911794190995522
 20
29.398040726689381
 30
0.0
  0
VERTEX
  5
B65
  8
DATA
  6
CONTINUOUS
 62
     7
 10
68.911794190995522
 20
29.398040726689381
 30
0.0
  0
VERTEX
  5
B66
  8
DATA
  6
CONTINUOUS
 62
     7
 10
68.874507579630489
 20
29.358803160700411
 30
0.0
  0
VERTEX
  5
B67
  8
DATA
  6
CONTINUOUS
 62
     7
 10
68.822660747534343
 20
29.304243536717362
 30
0.0
  0
VERTEX
  5
B68
  8
DATA
  6
CONTINUOUS
 62
     7
 10
68.756253694707112
 20
29.23436185474019
 30
0.0
  0
VERTEX
  5
B69
  8
DATA
  6
CONTINUOUS
 62
     7
 10
68.675286421148783
 20
29.149158114768909
 30
0.0
  0
VERTEX
  5
B6A
  8
DATA
  6
CONTINUOUS
 62
     7
 10
68.57975892685937
 20
29.048632316803531
 30
0.0
  0
VERTEX
  5
B6B
  8
DATA
  6
CONTINUOUS
 62
     7
 10
68.469671211838815
 20
28.932784460844051
 30
0.0
  0
VERTEX
  5
B6C
  8
DATA
  6
CONTINUOUS
 62
     7
 10
68.345023276087218
 20
28.801614546890459
 30
0.0
  0
VERTEX
  5
B6D
  8
DATA
  6
CONTINUOUS
 62
     7
 10
68.205815119604509
 20
28.655122574942769
 30
0.0
  0
VERTEX
  5
B6E
  8
DATA
  6
CONTINUOUS
 62
     7
 10
68.058191049991024
 20
28.4997743424037
 30
0.0
  0
VERTEX
  5
B6F
  8
DATA
  6
CONTINUOUS
 62
     7
 10
67.908295374847171
 20
28.342035646675999
 30
0.0
  0
VERTEX
  5
B70
  8
DATA
  6
CONTINUOUS
 62
     7
 10
67.756128094172936
 20
28.181906487759651
 30
0.0
  0
VERTEX
  5
B71
  8
DATA
  6
CONTINUOUS
 62
     7
 10
67.601689207968306
 20
28.019386865654671
 30
0.0
  0
VERTEX
  5
B72
  8
DATA
  6
CONTINUOUS
 62
     7
 10
67.44497871623328
 20
27.85447678036105
 30
0.0
  0
VERTEX
  5
B73
  8
DATA
  6
CONTINUOUS
 62
     7
 10
67.285996618967872
 20
27.68717623187878
 30
0.0
  0
VERTEX
  5
B74
  8
DATA
  6
CONTINUOUS
 62
     7
 10
67.124742916172067
 20
27.517485220207881
 30
0.0
  0
VERTEX
  5
B75
  8
DATA
  6
CONTINUOUS
 62
     7
 10
66.961217607845853
 20
27.345403745348332
 30
0.0
  0
VERTEX
  5
B76
  8
DATA
  6
CONTINUOUS
 62
     7
 10
66.79727759155378
 20
27.172885863677241
 30
0.0
  0
VERTEX
  5
B77
  8
DATA
  6
CONTINUOUS
 62
     7
 10
66.634779764860298
 20
27.001885631571671
 30
0.0
  0
VERTEX
  5
B78
  8
DATA
  6
CONTINUOUS
 62
     7
 10
66.473724127765436
 20
26.83240304903164
 30
0.0
  0
VERTEX
  5
B79
  8
DATA
  6
CONTINUOUS
 62
     7
 10
66.314110680269181
 20
26.664438116057131
 30
0.0
  0
VERTEX
  5
B7A
  8
DATA
  6
CONTINUOUS
 62
     7
 10
66.155939422371532
 20
26.497990832648149
 30
0.0
  0
VERTEX
  5
B7B
  8
DATA
  6
CONTINUOUS
 62
     7
 10
65.999210354072474
 20
26.33306119880471
 30
0.0
  0
VERTEX
  5
B7C
  8
DATA
  6
CONTINUOUS
 62
     7
 10
65.843923475372065
 20
26.169649214526789
 30
0.0
  0
VERTEX
  5
B7D
  8
DATA
  6
CONTINUOUS
 62
     7
 10
65.690078786270249
 20
26.00775487981441
 30
0.0
  0
VERTEX
  5
B7E
  8
DATA
  6
CONTINUOUS
 62
     7
 10
65.541434328215558
 20
25.851332868850299
 30
0.0
  0
VERTEX
  5
B7F
  8
DATA
  6
CONTINUOUS
 62
     7
 10
65.401748142656487
 20
25.704337855817212
 30
0.0
  0
VERTEX
  5
B80
  8
DATA
  6
CONTINUOUS
 62
     7
 10
65.271020229593034
 20
25.566769840715171
 30
0.0
  0
VERTEX
  5
B81
  8
DATA
  6
CONTINUOUS
 62
     7
 10
65.149250589025243
 20
25.43862882354415
 30
0.0
  0
VERTEX
  5
B82
  8
DATA
  6
CONTINUOUS
 62
     7
 10
65.036439220953071
 20
25.319914804304151
 30
0.0
  0
VERTEX
  5
B83
  8
DATA
  6
CONTINUOUS
 62
     7
 10
64.932586125376531
 20
25.210627782995179
 30
0.0
  0
VERTEX
  5
B84
  8
DATA
  6
CONTINUOUS
 62
     7
 10
64.837691302295624
 20
25.110767759617239
 30
0.0
  0
VERTEX
  5
B85
  8
DATA
  6
CONTINUOUS
 62
     7
 10
64.751754751710351
 20
25.02033473417033
 30
0.0
  0
VERTEX
  5
B86
  8
DATA
  6
CONTINUOUS
 62
     7
 10
64.674493972666312
 20
24.939031424347569
 30
0.0
  0
VERTEX
  5
B87
  8
DATA
  6
CONTINUOUS
 62
     7
 10
64.60562646420918
 20
24.86656054784207
 30
0.0
  0
VERTEX
  5
B88
  8
DATA
  6
CONTINUOUS
 62
     7
 10
64.545152226338899
 20
24.802922104653831
 30
0.0
  0
VERTEX
  5
B89
  8
DATA
  6
CONTINUOUS
 62
     7
 10
64.493071259055526
 20
24.748116094782851
 30
0.0
  0
VERTEX
  5
B8A
  8
DATA
  6
CONTINUOUS
 62
     7
 10
64.449383562359031
 20
24.702142518229131
 30
0.0
  0
VERTEX
  5
B8B
  8
DATA
  6
CONTINUOUS
 62
     7
 10
64.414089136249402
 20
24.665001374992681
 30
0.0
  0
VERTEX
  5
B8C
  8
DATA
  6
CONTINUOUS
 62
     7
 10
64.387187980726651
 20
24.63669266507349
 30
0.0
  0
VERTEX
  5
B8D
  8
DATA
  6
CONTINUOUS
 62
     7
 10
64.368680095790822
 20
24.617216388471562
 30
0.0
  0
VERTEX
  5
B8E
  8
DATA
  6
CONTINUOUS
 62
     7
 10
64.368680095790822
 20
24.617216388471562
 30
0.0
  0
VERTEX
  5
B8F
  8
DATA
  6
CONTINUOUS
 62
     7
 10
64.368680095790822
 20
24.617216388471562
 30
0.0
  0
VERTEX
  5
B90
  8
DATA
  6
CONTINUOUS
 62
     7
 10
64.360278247354955
 20
24.608569296892611
 30
0.0
  0
VERTEX
  5
B91
  8
DATA
  6
CONTINUOUS
 62
     7
 10
64.277717437747981
 20
24.51342107892884
 30
0.0
  0
VERTEX
  5
B92
  8
DATA
  6
CONTINUOUS
 62
     7
 10
64.205545013235394
 20
24.413778231561029
 30
0.0
  0
VERTEX
  5
B93
  8
DATA
  6
CONTINUOUS
 62
     7
 10
64.143760973817209
 20
24.309640754789189
 30
0.0
  0
VERTEX
  5
B94
  8
DATA
  6
CONTINUOUS
 62
     7
 10
64.092365319493453
 20
24.2010086486133
 30
0.0
  0
VERTEX
  5
B95
  8
DATA
  6
CONTINUOUS
 62
     7
 10
64.051358050264128
 20
24.087881913033371
 30
0.0
  0
VERTEX
  5
B96
  8
DATA
  6
CONTINUOUS
 62
     7
 10
64.020739166129204
 20
23.97026054804941
 30
0.0
  0
VERTEX
  5
B97
  8
DATA
  6
CONTINUOUS
 62
     7
 10
64.000508667088695
 20
23.848144553661399
 30
0.0
  0
VERTEX
  5
B98
  8
DATA
  6
CONTINUOUS
 62
     7
 10
63.990666553142603
 20
23.721533929869349
 30
0.0
  0
VERTEX
  5
B99
  8
DATA
  6
CONTINUOUS
 62
     7
 10
63.990666553142603
 20
23.721533929869349
 30
0.0
  0
VERTEX
  5
B9A
  8
DATA
  6
CONTINUOUS
 62
     7
 10
63.990666553142603
 20
23.709102221877082
 30
0.0
  0
VERTEX
  5
B9B
  8
DATA
  6
CONTINUOUS
 62
     7
 10
63.990666553142603
 20
23.709102221877082
 30
0.0
  0
VERTEX
  5
B9C
  8
DATA
  6
CONTINUOUS
 62
     7
 10
63.990668635878379
 20
23.641803477112891
 30
0.0
  0
VERTEX
  5
B9D
  8
DATA
  6
CONTINUOUS
 62
     7
 10
63.990671534263221
 20
23.548148934881361
 30
0.0
  0
VERTEX
  5
B9E
  8
DATA
  6
CONTINUOUS
 62
     7
 10
63.990675248297173
 20
23.428138595182471
 30
0.0
  0
VERTEX
  5
B9F
  8
DATA
  6
CONTINUOUS
 62
     7
 10
63.990679777980191
 20
23.281772458016238
 30
0.0
  0
VERTEX
  5
BA0
  8
DATA
  6
CONTINUOUS
 62
     7
 10
63.990685123312289
 20
23.109050523382649
 30
0.0
  0
VERTEX
  5
BA1
  8
DATA
  6
CONTINUOUS
 62
     7
 10
63.990691284293483
 20
22.909972791281731
 30
0.0
  0
VERTEX
  5
BA2
  8
DATA
  6
CONTINUOUS
 62
     7
 10
63.99069826092375
 20
22.68453926171345
 30
0.0
  0
VERTEX
  5
BA3
  8
DATA
  6
CONTINUOUS
 62
     7
 10
63.990706053203112
 20
22.43274993467784
 30
0.0
  0
VERTEX
  5
BA4
  8
DATA
  6
CONTINUOUS
 62
     7
 10
63.9907143169318
 20
22.165726821861671
 30
0.0
  0
VERTEX
  5
BA5
  8
DATA
  6
CONTINUOUS
 62
     7
 10
63.990722707910102
 20
21.894591934951759
 30
0.0
  0
VERTEX
  5
BA6
  8
DATA
  6
CONTINUOUS
 62
     7
 10
63.990731226138017
 20
21.61934527394811
 30
0.0
  0
VERTEX
  5
BA7
  8
DATA
  6
CONTINUOUS
 62
     7
 10
63.990739871615538
 20
21.339986838850731
 30
0.0
  0
VERTEX
  5
BA8
  8
DATA
  6
CONTINUOUS
 62
     7
 10
63.990748644342681
 20
21.056516629659601
 30
0.0
  0
VERTEX
  5
BA9
  8
DATA
  6
CONTINUOUS
 62
     7
 10
63.990757544319429
 20
20.768934646374731
 30
0.0
  0
VERTEX
  5
BAA
  8
DATA
  6
CONTINUOUS
 62
     7
 10
63.990766571545791
 20
20.477240888996121
 30
0.0
  0
VERTEX
  5
BAB
  8
DATA
  6
CONTINUOUS
 62
     7
 10
63.990775726021738
 20
20.181435357523771
 30
0.0
  0
VERTEX
  5
BAC
  8
DATA
  6
CONTINUOUS
 62
     7
 10
63.990784903657769
 20
19.88488146327585
 30
0.0
  0
VERTEX
  5
BAD
  8
DATA
  6
CONTINUOUS
 62
     7
 10
63.990794000364282
 20
19.59094261757053
 30
0.0
  0
VERTEX
  5
BAE
  8
DATA
  6
CONTINUOUS
 62
     7
 10
63.990803016141271
 20
19.299618820407812
 30
0.0
  0
VERTEX
  5
BAF
  8
DATA
  6
CONTINUOUS
 62
     7
 10
63.990811950988771
 20
19.010910071787681
 30
0.0
  0
VERTEX
  5
BB0
  8
DATA
  6
CONTINUOUS
 62
     7
 10
63.990820804906747
 20
18.724816371710158
 30
0.0
  0
VERTEX
  5
BB1
  8
DATA
  6
CONTINUOUS
 62
     7
 10
63.990829577895219
 20
18.44133772017523
 30
0.0
  0
VERTEX
  5
BB2
  8
DATA
  6
CONTINUOUS
 62
     7
 10
63.990838269954203
 20
18.16047411718289
 30
0.0
  0
VERTEX
  5
BB3
  8
DATA
  6
CONTINUOUS
 62
     7
 10
63.990846881083662
 20
17.882225562733161
 30
0.0
  0
VERTEX
  5
BB4
  8
DATA
  6
CONTINUOUS
 62
     7
 10
63.990855201308527
 20
17.613376910988791
 30
0.0
  0
VERTEX
  5
BB5
  8
DATA
  6
CONTINUOUS
 62
     7
 10
63.990863020653769
 20
17.360713016112548
 30
0.0
  0
VERTEX
  5
BB6
  8
DATA
  6
CONTINUOUS
 62
     7
 10
63.990870339119361
 20
17.124233878104452
 30
0.0
  0
VERTEX
  5
BB7
  8
DATA
  6
CONTINUOUS
 62
     7
 10
63.990877156705288
 20
16.903939496964469
 30
0.0
  0
VERTEX
  5
BB8
  8
DATA
  6
CONTINUOUS
 62
     7
 10
63.9908834734116
 20
16.699829872692622
 30
0.0
  0
VERTEX
  5
BB9
  8
DATA
  6
CONTINUOUS
 62
     7
 10
63.990889289238233
 20
16.511905005288909
 30
0.0
  0
VERTEX
  5
BBA
  8
DATA
  6
CONTINUOUS
 62
     7
 10
63.990894604185222
 20
16.340164894753329
 30
0.0
  0
VERTEX
  5
BBB
  8
DATA
  6
CONTINUOUS
 62
     7
 10
63.990899418252582
 20
16.18460954108588
 30
0.0
  0
VERTEX
  5
BBC
  8
DATA
  6
CONTINUOUS
 62
     7
 10
63.990903746756558
 20
16.044744034872071
 30
0.0
  0
VERTEX
  5
BBD
  8
DATA
  6
CONTINUOUS
 62
     7
 10
63.990907605013419
 20
15.920073466697399
 30
0.0
  0
VERTEX
  5
BBE
  8
DATA
  6
CONTINUOUS
 62
     7
 10
63.990910993023171
 20
15.81059783656187
 30
0.0
  0
VERTEX
  5
BBF
  8
DATA
  6
CONTINUOUS
 62
     7
 10
63.990913910785821
 20
15.71631714446549
 30
0.0
  0
VERTEX
  5
BC0
  8
DATA
  6
CONTINUOUS
 62
     7
 10
63.990916358301362
 20
15.63723139040825
 30
0.0
  0
VERTEX
  5
BC1
  8
DATA
  6
CONTINUOUS
 62
     7
 10
63.990918335569781
 20
15.57334057439015
 30
0.0
  0
VERTEX
  5
BC2
  8
DATA
  6
CONTINUOUS
 62
     7
 10
63.990919842591111
 20
15.52464469641119
 30
0.0
  0
VERTEX
  5
BC3
  8
DATA
  6
CONTINUOUS
 62
     7
 10
63.990920879365319
 20
15.491143756471381
 30
0.0
  0
VERTEX
  5
BC4
  8
DATA
  6
CONTINUOUS
 62
     7
 10
63.990920879365319
 20
15.491143756471381
 30
0.0
  0
VERTEX
  5
BC5
  8
DATA
  6
CONTINUOUS
 62
     7
 10
63.990920879365319
 20
15.491143756471381
 30
0.0
  0
VERTEX
  5
BC6
  8
DATA
  6
CONTINUOUS
 62
     7
 10
63.990920879365319
 20
15.46538414332519
 30
0.0
  0
VERTEX
  5
BC7
  8
DATA
  6
CONTINUOUS
 62
     7
 10
64.011152414734994
 20
15.29272751661394
 30
0.0
  0
VERTEX
  5
BC8
  8
DATA
  6
CONTINUOUS
 62
     7
 10
64.043034933108942
 20
15.13402479283689
 30
0.0
  0
VERTEX
  5
BC9
  8
DATA
  6
CONTINUOUS
 62
     7
 10
64.086568434487177
 20
14.98927597199404
 30
0.0
  0
VERTEX
  5
BCA
  8
DATA
  6
CONTINUOUS
 62
     7
 10
64.141752918869685
 20
14.858481054085379
 30
0.0
  0
VERTEX
  5
BCB
  8
DATA
  6
CONTINUOUS
 62
     7
 10
64.208588386256466
 20
14.74164003911091
 30
0.0
  0
VERTEX
  5
BCC
  8
DATA
  6
CONTINUOUS
 62
     7
 10
64.287074836647577
 20
14.638752927070639
 30
0.0
  0
VERTEX
  5
BCD
  8
DATA
  6
CONTINUOUS
 62
     7
 10
64.377212270042961
 20
14.54981971796456
 30
0.0
  0
VERTEX
  5
BCE
  8
DATA
  6
CONTINUOUS
 62
     7
 10
64.479000686442575
 20
14.47484041179268
 30
0.0
  0
VERTEX
  5
BCF
  8
DATA
  6
CONTINUOUS
 62
     7
 10
64.58608130444992
 20
14.41080841179827
 30
0.0
  0
VERTEX
  5
BD0
  8
DATA
  6
CONTINUOUS
 62
     7
 10
64.692095342668296
 20
14.354717121224621
 30
0.0
  0
VERTEX
  5
BD1
  8
DATA
  6
CONTINUOUS
 62
     7
 10
64.797042801097774
 20
14.30656654007174
 30
0.0
  0
VERTEX
  5
BD2
  8
DATA
  6
CONTINUOUS
 62
     7
 10
64.900923679738284
 20
14.266356668339609
 30
0.0
  0
VERTEX
  5
BD3
  8
DATA
  6
CONTINUOUS
 62
     7
 10
65.003737978589896
 20
14.23408750602826
 30
0.0
  0
VERTEX
  5
BD4
  8
DATA
  6
CONTINUOUS
 62
     7
 10
65.105485697652554
 20
14.20975905313766
 30
0.0
  0
VERTEX
  5
BD5
  8
DATA
  6
CONTINUOUS
 62
     7
 10
65.206166836926286
 20
14.193371309667819
 30
0.0
  0
VERTEX
  5
BD6
  8
DATA
  6
CONTINUOUS
 62
     7
 10
65.305781396411064
 20
14.18492427561875
 30
0.0
  0
VERTEX
  5
BD7
  8
DATA
  6
CONTINUOUS
 62
     7
 10
65.305781396411064
 20
14.18492427561875
 30
0.0
  0
VERTEX
  5
BD8
  8
DATA
  6
CONTINUOUS
 62
     7
 10
65.332237378979073
 20
14.18492427561875
 30
0.0
  0
VERTEX
  5
BD9
  8
DATA
  6
CONTINUOUS
 62
     7
 10
65.332237378979073
 20
14.18492427561875
 30
0.0
  0
VERTEX
  5
BDA
  8
DATA
  6
CONTINUOUS
 62
     7
 10
65.414792572584886
 20
14.18492559970611
 30
0.0
  0
VERTEX
  5
BDB
  8
DATA
  6
CONTINUOUS
 62
     7
 10
65.521945643708591
 20
14.18492731831426
 30
0.0
  0
VERTEX
  5
BDC
  8
DATA
  6
CONTINUOUS
 62
     7
 10
65.653696592350201
 20
14.18492943144318
 30
0.0
  0
VERTEX
  5
BDD
  8
DATA
  6
CONTINUOUS
 62
     7
 10
65.810045418509702
 20
14.18493193909287
 30
0.0
  0
VERTEX
  5
BDE
  8
DATA
  6
CONTINUOUS
 62
     7
 10
65.990992122187095
 20
14.184934841263329
 30
0.0
  0
VERTEX
  5
BDF
  8
DATA
  6
CONTINUOUS
 62
     7
 10
66.196536703382392
 20
14.18493813795456
 30
0.0
  0
VERTEX
  5
BE0
  8
DATA
  6
CONTINUOUS
 62
     7
 10
66.426679162095567
 20
14.18494182916656
 30
0.0
  0
VERTEX
  5
BE1
  8
DATA
  6
CONTINUOUS
 62
     7
 10
66.681419498326647
 20
14.184945914899339
 30
0.0
  0
VERTEX
  5
BE2
  8
DATA
  6
CONTINUOUS
 62
     7
 10
66.950156765301443
 20
14.18495022512626
 30
0.0
  0
VERTEX
  5
BE3
  8
DATA
  6
CONTINUOUS
 62
     7
 10
67.222290016245779
 20
14.184954589820739
 30
0.0
  0
VERTEX
  5
BE4
  8
DATA
  6
CONTINUOUS
 62
     7
 10
67.497819251159683
 20
14.18495900898276
 30
0.0
  0
VERTEX
  5
BE5
  8
DATA
  6
CONTINUOUS
 62
     7
 10
67.776744470043141
 20
14.184963482612311
 30
0.0
  0
VERTEX
  5
BE6
  8
DATA
  6
CONTINUOUS
 62
     7
 10
68.059065672896111
 20
14.18496801070941
 30
0.0
  0
VERTEX
  5
BE7
  8
DATA
  6
CONTINUOUS
 62
     7
 10
68.344782859718649
 20
14.18497259327405
 30
0.0
  0
VERTEX
  5
BE8
  8
DATA
  6
CONTINUOUS
 62
     7
 10
68.633896030510726
 20
14.184977230306229
 30
0.0
  0
VERTEX
  5
BE9
  8
DATA
  6
CONTINUOUS
 62
     7
 10
68.926405185272358
 20
14.184981921805949
 30
0.0
  0
VERTEX
  5
BEA
  8
DATA
  6
CONTINUOUS
 62
     7
 10
69.224037493188234
 20
14.184986695475009
 30
0.0
  0
VERTEX
  5
BEB
  8
DATA
  6
CONTINUOUS
 62
     7
 10
69.52852012344303
 20
14.1849915790152
 30
0.0
  0
VERTEX
  5
BEC
  8
DATA
  6
CONTINUOUS
 62
     7
 10
69.839853076036775
 20
14.184996572426529
 30
0.0
  0
VERTEX
  5
BED
  8
DATA
  6
CONTINUOUS
 62
     7
 10
70.158036350969425
 20
14.185001675708991
 30
0.0
  0
VERTEX
  5
BEE
  8
DATA
  6
CONTINUOUS
 62
     7
 10
70.483069948241038
 20
14.18500688886259
 30
0.0
  0
VERTEX
  5
BEF
  8
DATA
  6
CONTINUOUS
 62
     7
 10
70.814953867851585
 20
14.185012211887321
 30
0.0
  0
VERTEX
  5
BF0
  8
DATA
  6
CONTINUOUS
 62
     7
 10
71.153688109801067
 20
14.185017644783191
 30
0.0
  0
VERTEX
  5
BF1
  8
DATA
  6
CONTINUOUS
 62
     7
 10
71.499272674089454
 20
14.18502318755019
 30
0.0
  0
VERTEX
  5
BF2
  8
DATA
  6
CONTINUOUS
 62
     7
 10
71.849994552451832
 20
14.185028812713609
 30
0.0
  0
VERTEX
  5
BF3
  8
DATA
  6
CONTINUOUS
 62
     7
 10
72.204140736623216
 20
14.185034492798749
 30
0.0
  0
VERTEX
  5
BF4
  8
DATA
  6
CONTINUOUS
 62
     7
 10
72.561711226603578
 20
14.185040227805599
 30
0.0
  0
VERTEX
  5
BF5
  8
DATA
  6
CONTINUOUS
 62
     7
 10
72.922706022392944
 20
14.185046017734161
 30
0.0
  0
VERTEX
  5
BF6
  8
DATA
  6
CONTINUOUS
 62
     7
 10
73.287125123991331
 20
14.18505186258443
 30
0.0
  0
VERTEX
  5
BF7
  8
DATA
  6
CONTINUOUS
 62
     7
 10
73.654968531398694
 20
14.18505776235641
 30
0.0
  0
VERTEX
  5
BF8
  8
DATA
  6
CONTINUOUS
 62
     7
 10
74.026236244615063
 20
14.185063717050101
 30
0.0
  0
VERTEX
  5
BF9
  8
DATA
  6
CONTINUOUS
 62
     7
 10
74.400928263640424
 20
14.18506972666551
 30
0.0
  0
VERTEX
  5
BFA
  8
DATA
  6
CONTINUOUS
 62
     7
 10
74.77733244302901
 20
14.185075763741899
 30
0.0
  0
VERTEX
  5
BFB
  8
DATA
  6
CONTINUOUS
 62
     7
 10
75.153736637335143
 20
14.18508180081856
 30
0.0
  0
VERTEX
  5
BFC
  8
DATA
  6
CONTINUOUS
 62
     7
 10
75.530140846558723
 20
14.185087837895489
 30
0.0
  0
VERTEX
  5
BFD
  8
DATA
  6
CONTINUOUS
 62
     7
 10
75.906545070699792
 20
14.185093874972679
 30
0.0
  0
VERTEX
  5
BFE
  8
DATA
  6
CONTINUOUS
 62
     7
 10
76.282949309758351
 20
14.18509991205015
 30
0.0
  0
VERTEX
  5
BFF
  8
DATA
  6
CONTINUOUS
 62
     7
 10
76.659353563734413
 20
14.18510594912787
 30
0.0
  0
VERTEX
  5
C00
  8
DATA
  6
CONTINUOUS
 62
     7
 10
77.035757832627951
 20
14.185111986205859
 30
0.0
  0
VERTEX
  5
C01
  8
DATA
  6
CONTINUOUS
 62
     7
 10
77.412162116438978
 20
14.185118023284121
 30
0.0
  0
VERTEX
  5
C02
  8
DATA
  6
CONTINUOUS
 62
     7
 10
77.786854181030222
 20
14.18512403290042
 30
0.0
  0
VERTEX
  5
C03
  8
DATA
  6
CONTINUOUS
 62
     7
 10
78.158121792264424
 20
14.185129987592511
 30
0.0
  0
VERTEX
  5
C04
  8
DATA
  6
CONTINUOUS
 62
     7
 10
78.525964950141542
 20
14.18513588736041
 30
0.0
  0
VERTEX
  5
C05
  8
DATA
  6
CONTINUOUS
 62
     7
 10
78.890383654661633
 20
14.18514173220411
 30
0.0
  0
VERTEX
  5
C06
  8
DATA
  6
CONTINUOUS
 62
     7
 10
79.251377905824626
 20
14.185147522123611
 30
0.0
  0
VERTEX
  5
C07
  8
DATA
  6
CONTINUOUS
 62
     7
 10
79.608947703630577
 20
14.185153257118911
 30
0.0
  0
VERTEX
  5
C08
  8
DATA
  6
CONTINUOUS
 62
     7
 10
79.963093048079429
 20
14.18515893719001
 30
0.0
  0
VERTEX
  5
C09
  8
DATA
  6
CONTINUOUS
 62
     7
 10
80.313813939171268
 20
14.18516456233691
 30
0.0
  0
VERTEX
  5
C0A
  8
DATA
  6
CONTINUOUS
 62
     7
 10
80.659398144627488
 20
14.1851701050975
 30
0.0
  0
VERTEX
  5
C0B
  8
DATA
  6
CONTINUOUS
 62
     7
 10
80.998133432169624
 20
14.18517553800964
 30
0.0
  0
VERTEX
  5
C0C
  8
DATA
  6
CONTINUOUS
 62
     7
 10
81.330019801797633
 20
14.18518086107334
 30
0.0
  0
VERTEX
  5
C0D
  8
DATA
  6
CONTINUOUS
 62
     7
 10
81.655057253511515
 20
14.1851860742886
 30
0.0
  0
VERTEX
  5
C0E
  8
DATA
  6
CONTINUOUS
 62
     7
 10
81.973245787311313
 20
14.185191177655421
 30
0.0
  0
VERTEX
  5
C0F
  8
DATA
  6
CONTINUOUS
 62
     7
 10
82.284585403196942
 20
14.185196171173789
 30
0.0
  0
VERTEX
  5
C10
  8
DATA
  6
CONTINUOUS
 62
     7
 10
82.589076101168502
 20
14.185201054843731
 30
0.0
  0
VERTEX
  5
C11
  8
DATA
  6
CONTINUOUS
 62
     7
 10
82.886717881225934
 20
14.18520582866522
 30
0.0
  0
VERTEX
  5
C12
  8
DATA
  6
CONTINUOUS
 62
     7
 10
83.179302936276642
 20
14.18521052138286
 30
0.0
  0
VERTEX
  5
C13
  8
DATA
  6
CONTINUOUS
 62
     7
 10
83.468623459227913
 20
14.185215161741221
 30
0.0
  0
VERTEX
  5
C14
  8
DATA
  6
CONTINUOUS
 62
     7
 10
83.754679450079863
 20
14.18521974974032
 30
0.0
  0
VERTEX
  5
C15
  8
DATA
  6
CONTINUOUS
 62
     7
 10
84.037470908832432
 20
14.18522428538013
 30
0.0
  0
VERTEX
  5
C16
  8
DATA
  6
CONTINUOUS
 62
     7
 10
84.316997835485566
 20
14.18522876866068
 30
0.0
  0
VERTEX
  5
C17
  8
DATA
  6
CONTINUOUS
 62
     7
 10
84.593260230039391
 20
14.185233199581949
 30
0.0
  0
VERTEX
  5
C18
  8
DATA
  6
CONTINUOUS
 62
     7
 10
84.866258092493794
 20
14.18523757814396
 30
0.0
  0
VERTEX
  5
C19
  8
DATA
  6
CONTINUOUS
 62
     7
 10
85.135991422848875
 20
14.18524190434669
 30
0.0
  0
VERTEX
  5
C1A
  8
DATA
  6
CONTINUOUS
 62
     7
 10
85.391498740732828
 20
14.185246002381019
 30
0.0
  0
VERTEX
  5
C1B
  8
DATA
  6
CONTINUOUS
 62
     7
 10
85.621818565774007
 20
14.18524969643784
 30
0.0
  0
VERTEX
  5
C1C
  8
DATA
  6
CONTINUOUS
 62
     7
 10
85.826950897972466
 20
14.18525298651714
 30
0.0
  0
VERTEX
  5
C1D
  8
DATA
  6
CONTINUOUS
 62
     7
 10
86.006895737328094
 20
14.18525587261891
 30
0.0
  0
VERTEX
  5
C1E
  8
DATA
  6
CONTINUOUS
 62
     7
 10
86.161653083840946
 20
14.18525835474318
 30
0.0
  0
VERTEX
  5
C1F
  8
DATA
  6
CONTINUOUS
 62
     7
 10
86.291222937511066
 20
14.185260432889921
 30
0.0
  0
VERTEX
  5
C20
  8
DATA
  6
CONTINUOUS
 62
     7
 10
86.395605298338381
 20
14.185262107059151
 30
0.0
  0
VERTEX
  5
C21
  8
DATA
  6
CONTINUOUS
 62
     7
 10
86.47480016632295
 20
14.18526337725085
 30
0.0
  0
VERTEX
  5
C22
  8
DATA
  6
CONTINUOUS
 62
     7
 10
86.47480016632295
 20
14.18526337725085
 30
0.0
  0
VERTEX
  5
C23
  8
DATA
  6
CONTINUOUS
 62
     7
 10
86.47480016632295
 20
14.18526337725085
 30
0.0
  0
VERTEX
  5
C24
  8
DATA
  6
CONTINUOUS
 62
     7
 10
86.487634557501281
 20
14.18526337725085
 30
0.0
  0
VERTEX
  5
C25
  8
DATA
  6
CONTINUOUS
 62
     7
 10
86.623076223710981
 20
14.193995875500541
 30
0.0
  0
VERTEX
  5
C26
  8
DATA
  6
CONTINUOUS
 62
     7
 10
86.753048207250785
 20
14.21372728307102
 30
0.0
  0
VERTEX
  5
C27
  8
DATA
  6
CONTINUOUS
 62
     7
 10
86.877550508120734
 20
14.24445759996229
 30
0.0
  0
VERTEX
  5
C28
  8
DATA
  6
CONTINUOUS
 62
     7
 10
86.996583126320758
 20
14.286186826174349
 30
0.0
  0
VERTEX
  5
C29
  8
DATA
  6
CONTINUOUS
 62
     7
 10
87.110146061850912
 20
14.3389149617072
 30
0.0
  0
VERTEX
  5
C2A
  8
DATA
  6
CONTINUOUS
 62
     7
 10
87.218239314711127
 20
14.40264200656085
 30
0.0
  0
VERTEX
  5
C2B
  8
DATA
  6
CONTINUOUS
 62
     7
 10
87.320862884901473
 20
14.477367960735281
 30
0.0
  0
VERTEX
  5
C2C
  8
DATA
  6
CONTINUOUS
 62
     7
 10
87.418016772421893
 20
14.563092824230511
 30
0.0
  0
VERTEX
  5
C2D
  8
DATA
  6
CONTINUOUS
 62
     7
 10
87.506852424054586
 20
14.65721554376346
 30
0.0
  0
VERTEX
  5
C2E
  8
DATA
  6
CONTINUOUS
 62
     7
 10
87.584521286581861
 20
14.75713506605107
 30
0.0
  0
VERTEX
  5
C2F
  8
DATA
  6
CONTINUOUS
 62
     7
 10
87.651023360003578
 20
14.862851391093329
 30
0.0
  0
VERTEX
  5
C30
  8
DATA
  6
CONTINUOUS
 62
     7
 10
87.706358644319863
 20
14.974364518890249
 30
0.0
  0
VERTEX
  5
C31
  8
DATA
  6
CONTINUOUS
 62
     7
 10
87.750527139530661
 20
15.091674449441809
 30
0.0
  0
VERTEX
  5
C32
  8
DATA
  6
CONTINUOUS
 62
     7
 10
87.783528845635928
 20
15.21478118274803
 30
0.0
  0
VERTEX
  5
C33
  8
DATA
  6
CONTINUOUS
 62
     7
 10
87.805363762635722
 20
15.343684718808911
 30
0.0
  0
VERTEX
  5
C34
  8
DATA
  6
CONTINUOUS
 62
     7
 10
87.816031890530056
 20
15.47838505762444
 30
0.0
  0
VERTEX
  5
C35
  8
DATA
  6
CONTINUOUS
 62
     7
 10
87.816031890530056
 20
15.47838505762444
 30
0.0
  0
VERTEX
  5
C36
  8
DATA
  6
CONTINUOUS
 62
     7
 10
87.816031890530056
 20
15.49165240891954
 30
0.0
  0
VERTEX
  5
C37
  8
DATA
  6
CONTINUOUS
 62
     7
 10
87.816031890530056
 20
15.49165240891954
 30
0.0
  0
VERTEX
  5
C38
  8
DATA
  6
CONTINUOUS
 62
     7
 10
87.816031890530382
 20
15.523740342708111
 30
0.0
  0
VERTEX
  5
C39
  8
DATA
  6
CONTINUOUS
 62
     7
 10
87.816031890530624
 20
15.56538909309328
 30
0.0
  0
VERTEX
  5
C3A
  8
DATA
  6
CONTINUOUS
 62
     7
 10
87.816031890530837
 20
15.61659866007505
 30
0.0
  0
VERTEX
  5
C3B
  8
DATA
  6
CONTINUOUS
 62
     7
 10
87.816031890530951
 20
15.677369043653419
 30
0.0
  0
VERTEX
  5
C3C
  8
DATA
  6
CONTINUOUS
 62
     7
 10
87.816031890531022
 20
15.74770024382839
 30
0.0
  0
VERTEX
  5
C3D
  8
DATA
  6
CONTINUOUS
 62
     7
 10
87.816031890531022
 20
15.82759226059996
 30
0.0
  0
VERTEX
  5
C3E
  8
DATA
  6
CONTINUOUS
 62
     7
 10
87.816031890530908
 20
15.91704509396812
 30
0.0
  0
VERTEX
  5
C3F
  8
DATA
  6
CONTINUOUS
 62
     7
 10
87.816031890530766
 20
16.016058743932891
 30
0.0
  0
VERTEX
  5
C40
  8
DATA
  6
CONTINUOUS
 62
     7
 10
87.81603189053061
 20
16.124282254303971
 30
0.0
  0
VERTEX
  5
C41
  8
DATA
  6
CONTINUOUS
 62
     7
 10
87.816031890530454
 20
16.24136466889107
 30
0.0
  0
VERTEX
  5
C42
  8
DATA
  6
CONTINUOUS
 62
     7
 10
87.816031890530326
 20
16.367305987694198
 30
0.0
  0
VERTEX
  5
C43
  8
DATA
  6
CONTINUOUS
 62
     7
 10
87.816031890530226
 20
16.50210621071335
 30
0.0
  0
VERTEX
  5
C44
  8
DATA
  6
CONTINUOUS
 62
     7
 10
87.816031890530127
 20
16.645765337948529
 30
0.0
  0
VERTEX
  5
C45
  8
DATA
  6
CONTINUOUS
 62
     7
 10
87.816031890530056
 20
16.79828336939973
 30
0.0
  0
VERTEX
  5
C46
  8
DATA
  6
CONTINUOUS
 62
     7
 10
87.816031890530056
 20
16.959660305066951
 30
0.0
  0
VERTEX
  5
C47
  8
DATA
  6
CONTINUOUS
 62
     7
 10
87.816031890530056
 20
17.129896144950202
 30
0.0
  0
VERTEX
  5
C48
  8
DATA
  6
CONTINUOUS
 62
     7
 10
87.816031890530056
 20
17.312260257228541
 30
0.0
  0
VERTEX
  5
C49
  8
DATA
  6
CONTINUOUS
 62
     7
 10
87.816031890530056
 20
17.510022010081052
 30
0.0
  0
VERTEX
  5
C4A
  8
DATA
  6
CONTINUOUS
 62
     7
 10
87.816031890530056
 20
17.723181403507731
 30
0.0
  0
VERTEX
  5
C4B
  8
DATA
  6
CONTINUOUS
 62
     7
 10
87.816031890530056
 20
17.95173843750857
 30
0.0
  0
VERTEX
  5
C4C
  8
DATA
  6
CONTINUOUS
 62
     7
 10
87.816031890530056
 20
18.195693112083578
 30
0.0
  0
VERTEX
  5
C4D
  8
DATA
  6
CONTINUOUS
 62
     7
 10
87.816031890530056
 20
18.455045427232761
 30
0.0
  0
VERTEX
  5
C4E
  8
DATA
  6
CONTINUOUS
 62
     7
 10
87.816031890530056
 20
18.729795382956091
 30
0.0
  0
VERTEX
  5
C4F
  8
DATA
  6
CONTINUOUS
 62
     7
 10
87.816031890530056
 20
19.01994297925361
 30
0.0
  0
VERTEX
  5
C50
  8
DATA
  6
CONTINUOUS
 62
     7
 10
87.816031890530056
 20
19.316485047163699
 30
0.0
  0
VERTEX
  5
C51
  8
DATA
  6
CONTINUOUS
 62
     7
 10
87.816031890530056
 20
19.610418417724819
 30
0.0
  0
VERTEX
  5
C52
  8
DATA
  6
CONTINUOUS
 62
     7
 10
87.816031890530056
 20
19.901743090936961
 30
0.0
  0
VERTEX
  5
C53
  8
DATA
  6
CONTINUOUS
 62
     7
 10
87.816031890530056
 20
20.190459066800109
 30
0.0
  0
VERTEX
  5
C54
  8
DATA
  6
CONTINUOUS
 62
     7
 10
87.816031890530056
 20
20.476566345314279
 30
0.0
  0
VERTEX
  5
C55
  8
DATA
  6
CONTINUOUS
 62
     7
 10
87.816031890530056
 20
20.760064926479458
 30
0.0
  0
VERTEX
  5
C56
  8
DATA
  6
CONTINUOUS
 62
     7
 10
87.816031890530056
 20
21.04095481029567
 30
0.0
  0
VERTEX
  5
C57
  8
DATA
  6
CONTINUOUS
 62
     7
 10
87.816031890530056
 20
21.319235996762892
 30
0.0
  0
VERTEX
  5
C58
  8
DATA
  6
CONTINUOUS
 62
     7
 10
87.816031890530056
 20
21.588110771646139
 30
0.0
  0
VERTEX
  5
C59
  8
DATA
  6
CONTINUOUS
 62
     7
 10
87.816031890530056
 20
21.84078142071041
 30
0.0
  0
VERTEX
  5
C5A
  8
DATA
  6
CONTINUOUS
 62
     7
 10
87.816031890530127
 20
22.077247943955701
 30
0.0
  0
VERTEX
  5
C5B
  8
DATA
  6
CONTINUOUS
 62
     7
 10
87.816031890530226
 20
22.297510341382011
 30
0.0
  0
VERTEX
  5
C5C
  8
DATA
  6
CONTINUOUS
 62
     7
 10
87.816031890530326
 20
22.50156861298936
 30
0.0
  0
VERTEX
  5
C5D
  8
DATA
  6
CONTINUOUS
 62
     7
 10
87.816031890530454
 20
22.689422758777731
 30
0.0
  0
VERTEX
  5
C5E
  8
DATA
  6
CONTINUOUS
 62
     7
 10
87.81603189053061
 20
22.861072778747118
 30
0.0
  0
VERTEX
  5
C5F
  8
DATA
  6
CONTINUOUS
 62
     7
 10
87.816031890530766
 20
23.016518672897529
 30
0.0
  0
VERTEX
  5
C60
  8
DATA
  6
CONTINUOUS
 62
     7
 10
87.816031890530908
 20
23.15627144164916
 30
0.0
  0
VERTEX
  5
C61
  8
DATA
  6
CONTINUOUS
 62
     7
 10
87.816031890531022
 20
23.280842085422162
 30
0.0
  0
VERTEX
  5
C62
  8
DATA
  6
CONTINUOUS
 62
     7
 10
87.816031890531022
 20
23.390230604216541
 30
0.0
  0
VERTEX
  5
C63
  8
DATA
  6
CONTINUOUS
 62
     7
 10
87.816031890530951
 20
23.484436998032312
 30
0.0
  0
VERTEX
  5
C64
  8
DATA
  6
CONTINUOUS
 62
     7
 10
87.816031890530837
 20
23.563461266869449
 30
0.0
  0
VERTEX
  5
C65
  8
DATA
  6
CONTINUOUS
 62
     7
 10
87.816031890530624
 20
23.627303410727979
 30
0.0
  0
VERTEX
  5
C66
  8
DATA
  6
CONTINUOUS
 62
     7
 10
87.816031890530382
 20
23.67596342960789
 30
0.0
  0
VERTEX
  5
C67
  8
DATA
  6
CONTINUOUS
 62
     7
 10
87.816031890530056
 20
23.709441323509179
 30
0.0
  0
VERTEX
  5
C68
  8
DATA
  6
CONTINUOUS
 62
     7
 10
87.816031890530056
 20
23.709441323509179
 30
0.0
  0
VERTEX
  5
C69
  8
DATA
  6
CONTINUOUS
 62
     7
 10
87.816031890530056
 20
23.709441323509179
 30
0.0
  0
VERTEX
  5
C6A
  8
DATA
  6
CONTINUOUS
 62
     7
 10
87.816031890530056
 20
23.72187908688592
 30
0.0
  0
VERTEX
  5
C6B
  8
DATA
  6
CONTINUOUS
 62
     7
 10
87.805240385412958
 20
23.849374520552001
 30
0.0
  0
VERTEX
  5
C6C
  8
DATA
  6
CONTINUOUS
 62
     7
 10
87.78432883026052
 20
23.972122305729162
 30
0.0
  0
VERTEX
  5
C6D
  8
DATA
  6
CONTINUOUS
 62
     7
 10
87.753297225072714
 20
24.090122442417389
 30
0.0
  0
VERTEX
  5
C6E
  8
DATA
  6
CONTINUOUS
 62
     7
 10
87.712145569849582
 20
24.203374930616711
 30
0.0
  0
VERTEX
  5
C6F
  8
DATA
  6
CONTINUOUS
 62
     7
 10
87.660873864591068
 20
24.311879770327089
 30
0.0
  0
VERTEX
  5
C70
  8
DATA
  6
CONTINUOUS
 62
     7
 10
87.599482109297213
 20
24.415636961548561
 30
0.0
  0
VERTEX
  5
C71
  8
DATA
  6
CONTINUOUS
 62
     7
 10
87.527970303967976
 20
24.514646504281089
 30
0.0
  0
VERTEX
  5
C72
  8
DATA
  6
CONTINUOUS
 62
     7
 10
87.446338448603399
 20
24.608908398524719
 30
0.0
  0
VERTEX
  5
C73
  8
DATA
  6
CONTINUOUS
 62
     7
 10
87.446338448603399
 20
24.608908398524719
 30
0.0
  0
VERTEX
  5
C74
  8
DATA
  6
CONTINUOUS
 62
     7
 10
87.437933572475316
 20
24.617555490103669
 30
0.0
  0
SEQEND
  5
C75
  8
DATA
  6
CONTINUOUS
 62
     7
  0
POLYLINE
  5
45C
  8
DATA
  6
CONTINUOUS
 62
     7
 66
     1
 10
0.0
 20
0.0
 30
0.0
 70
     1
  0
VERTEX
  5
C76
  8
DATA
  6
CONTINUOUS
 62
     7
 10
76.573960779482661
 20
26.57060320818448
 30
0.0
  0
VERTEX
  5
C77
  8
DATA
  6
CONTINUOUS
 62
     7
 10
75.232660779482714
 20
26.57060320818448
 30
0.0
  0
VERTEX
  5
C78
  8
DATA
  6
CONTINUOUS
 62
     7
 10
75.23281077948235
 20
21.344378208183251
 30
0.0
  0
VERTEX
  5
C79
  8
DATA
  6
CONTINUOUS
 62
     7
 10
76.574060779482423
 20
21.344553208182809
 30
0.0
  0
SEQEND
  5
C7A
  8
DATA
  6
CONTINUOUS
 62
     7
  0
POLYLINE
  5
462
  8
DATA
  6
CONTINUOUS
 62
     7
 66
     1
 10
0.0
 20
0.0
 30
0.0
 70
     1
  0
VERTEX
  5
C7B
  8
DATA
  6
CONTINUOUS
 62
     7
 10
69.195710779481999
 20
22.442053208183001
 30
0.0
  0
VERTEX
  5
C7C
  8
DATA
  6
CONTINUOUS
 62
     7
 10
67.854560779483052
 20
22.442053208183001
 30
0.0
  0
VERTEX
  5
C7D
  8
DATA
  6
CONTINUOUS
 62
     7
 10
67.854635779482862
 20
17.215978208181369
 30
0.0
  0
VERTEX
  5
C7E
  8
DATA
  6
CONTINUOUS
 62
     7
 10
69.195885779483035
 20
17.215978208181369
 30
0.0
  0
SEQEND
  5
C7F
  8
DATA
  6
CONTINUOUS
 62
     7
  0
POLYLINE
  5
468
  8
DATA
  6
CONTINUOUS
 62
     7
 66
     1
 10
0.0
 20
0.0
 30
0.0
 70
     1
  0
VERTEX
  5
C80
  8
DATA
  6
CONTINUOUS
 62
     7
 10
83.952135779482276
 20
22.44222820818257
 30
0.0
  0
VERTEX
  5
C81
  8
DATA
  6
CONTINUOUS
 62
     7
 10
82.610985779481794
 20
22.44222820818257
 30
0.0
  0
VERTEX
  5
C82
  8
DATA
  6
CONTINUOUS
 62
     7
 10
82.611085779482977
 20
17.216153208183769
 30
0.0
  0
VERTEX
  5
C83
  8
DATA
  6
CONTINUOUS
 62
     7
 10
83.952310779483184
 20
17.216153208183769
 30
0.0
  0
SEQEND
  5
C84
  8
DATA
  6
CONTINUOUS
 62
     7
  0
TEXT
  5
46E
  8
DATA
 62
     7
 10
81.252319908074014
 20
9.1482267900109626
 30
0.0
 40
2.1717881944444439
  1
9 WATTS
 50
180.0
 41
0.8
 11
81.252319908074014
 21
6.976438595566516
 31
0.0
 73
     3
  0
TEXT
  5
46F
  8
DATA
 62
     7
 10
84.874797993921646
 20
37.327580668950731
 30
0.0
 40
2.1717881944444439
  1
100V～50/60Hz
 50
180.0
 41
0.8
 11
84.874797993921646
 21
35.155792474506292
 31
0.0
 73
     3
  0
TEXT
  5
470
  8
DATA
 62
     7
 10
82.998819618164703
 20
40.75063408853083
 30
0.0
 40
2.1717881944444439
  1
120～60Hz
 50
180.0
 41
0.8
 11
82.998819618164703
 21
38.578845894086392
 31
0.0
 73
     3
  0
ARC
  5
471
  8
DATA
  6
CONTINUOUS
 62
     7
 10
98.460358079702928
 20
38.43692551855208
 30
0.0
 40
4.8384615384617176
 50
316.99713135190598
 51
43.002868648094008
  0
LINE
  5
472
  8
DATA
  6
CONTINUOUS
 62
     7
 10
101.9988196181647
 20
35.136925518552069
 30
0.0
 11
100.9988196181647
 21
35.136925518552069
 31
0.0
  0
LINE
  5
473
  8
DATA
  6
CONTINUOUS
 62
     7
 10
101.9988196181647
 20
41.736925518552091
 30
0.0
 11
100.9988196181647
 21
41.736925518552091
 31
0.0
  0
ARC
  5
474
  8
DATA
  6
CONTINUOUS
 62
     7
 10
-334.46271884337278
 20
38.43692551855208
 30
0.0
 40
4.8384615384617176
 50
136.99713135190601
 51
223.00286864809399
  0
LINE
  5
475
  8
DATA
  6
CONTINUOUS
 62
     7
 10
-338.00118038183462
 20
35.136925518552069
 30
0.0
 11
-337.0011803818345
 21
35.136925518552069
 31
0.0
  0
LINE
  5
476
  8
DATA
  6
CONTINUOUS
 62
     7
 10
-338.00118038183462
 20
41.736925518552091
 30
0.0
 11
-337.0011803818345
 21
41.736925518552091
 31
0.0
  0
LINE
  5
477
  8
DATA
  6
CONTINUOUS
 62
     7
 10
223.0569666364668
 20
-395.85967721775569
 30
0.0
 11
223.0569666364668
 21
-440.25967721775561
 31
0.0
  0
CIRCLE
  5
478
  8
DATA
  6
CONTINUOUS
 62
     7
 10
240.0569666364668
 20
-435.25967721775561
 30
0.0
 40
3.3499999999999939
  0
LINE
  5
479
  8
DATA
  6
CONTINUOUS
 62
     7
 10
239.40696663646679
 20
-433.10967721775569
 30
0.0
 11
240.7069666364668
 21
-433.10967721775569
 31
0.0
  0
LINE
  5
47A
  8
DATA
  6
CONTINUOUS
 62
     7
 10
239.40696663646679
 20
-437.40967721775559
 30
0.0
 11
240.7069666364668
 21
-437.40967721775559
 31
0.0
  0
LINE
  5
47B
  8
DATA
  6
CONTINUOUS
 62
     7
 10
237.90696663646679
 20
-434.60967721775557
 30
0.0
 11
237.90696663646679
 21
-435.90967721775559
 31
0.0
  0
LINE
  5
47C
  8
DATA
  6
CONTINUOUS
 62
     7
 10
242.2069666364668
 20
-434.60967721775557
 30
0.0
 11
242.2069666364668
 21
-435.90967721775559
 31
0.0
  0
LINE
  5
47D
  8
DATA
  6
CONTINUOUS
 62
     7
 10
239.40696663646679
 20
-433.10967721775569
 30
0.0
 11
239.40696663646679
 21
-434.31099391969281
 31
0.0
  0
LINE
  5
47E
  8
DATA
  6
CONTINUOUS
 62
     7
 10
240.7069666364668
 20
-433.10967721775569
 30
0.0
 11
240.7069666364668
 21
-434.31099391969281
 31
0.0
  0
LINE
  5
47F
  8
DATA
  6
CONTINUOUS
 62
     7
 10
242.2069666364668
 20
-434.60967721775557
 30
0.0
 11
241.0056499345209
 21
-434.60967721775557
 31
0.0
  0
LINE
  5
480
  8
DATA
  6
CONTINUOUS
 62
     7
 10
242.2069666364668
 20
-435.90967721775559
 30
0.0
 11
241.0056499345209
 21
-435.90967721775559
 31
0.0
  0
LINE
  5
481
  8
DATA
  6
CONTINUOUS
 62
     7
 10
237.90696663646679
 20
-434.60967721775557
 30
0.0
 11
239.10828333841269
 21
-434.60967721775557
 31
0.0
  0
LINE
  5
482
  8
DATA
  6
CONTINUOUS
 62
     7
 10
240.7069666364668
 20
-437.40967721775559
 30
0.0
 11
240.7069666364668
 21
-436.20836051581853
 31
0.0
  0
LINE
  5
483
  8
DATA
  6
CONTINUOUS
 62
     7
 10
239.40696663646679
 20
-437.40967721775559
 30
0.0
 11
239.40696663646679
 21
-436.20836051581853
 31
0.0
  0
LINE
  5
484
  8
DATA
  6
CONTINUOUS
 62
     7
 10
237.90696663646679
 20
-435.90967721775559
 30
0.0
 11
239.10828333841269
 21
-435.90967721775559
 31
0.0
  0
ARC
  5
485
  8
DATA
  6
CONTINUOUS
 62
     7
 10
240.0569666364668
 20
-435.25967721775561
 30
0.0
 40
1.15000000000292
 50
124.4173887100967
 51
145.5826112896566
  0
ARC
  5
486
  8
DATA
  6
CONTINUOUS
 62
     7
 10
240.0569666364668
 20
-435.25967721775561
 30
0.0
 40
1.1500000000101169
 50
34.417388710342003
 51
55.582611289904293
  0
ARC
  5
487
  8
DATA
  6
CONTINUOUS
 62
     7
 10
240.0569666364668
 20
-435.25967721775561
 30
0.0
 40
1.15000000000292
 50
304.41738871009687
 51
325.58261128965978
  0
ARC
  5
488
  8
DATA
  6
CONTINUOUS
 62
     7
 10
240.0569666364668
 20
-435.25967721775561
 30
0.0
 40
1.1500000000101409
 50
214.41738871034121
 51
235.5826112899054
  0
CIRCLE
  5
489
  8
DATA
  6
CONTINUOUS
 62
     7
 10
352.05696663646751
 20
-435.25967721775561
 30
0.0
 40
3.3500000000000218
  0
LINE
  5
48A
  8
DATA
  6
CONTINUOUS
 62
     7
 10
351.40696663646759
 20
-433.10967721775569
 30
0.0
 11
352.7069666364676
 21
-433.10967721775569
 31
0.0
  0
LINE
  5
48B
  8
DATA
  6
CONTINUOUS
 62
     7
 10
351.40696663646759
 20
-437.40967721775559
 30
0.0
 11
352.7069666364676
 21
-437.40967721775559
 31
0.0
  0
LINE
  5
48C
  8
DATA
  6
CONTINUOUS
 62
     7
 10
349.90696663646759
 20
-434.60967721775557
 30
0.0
 11
349.90696663646759
 21
-435.90967721775559
 31
0.0
  0
LINE
  5
48D
  8
DATA
  6
CONTINUOUS
 62
     7
 10
354.2069666364676
 20
-434.60967721775557
 30
0.0
 11
354.2069666364676
 21
-435.90967721775559
 31
0.0
  0
LINE
  5
48E
  8
DATA
  6
CONTINUOUS
 62
     7
 10
351.40696663646759
 20
-433.10967721775569
 30
0.0
 11
351.40696663646759
 21
-434.31099391969281
 31
0.0
  0
LINE
  5
48F
  8
DATA
  6
CONTINUOUS
 62
     7
 10
352.7069666364676
 20
-433.10967721775569
 30
0.0
 11
352.7069666364676
 21
-434.31099391969281
 31
0.0
  0
LINE
  5
490
  8
DATA
  6
CONTINUOUS
 62
     7
 10
354.2069666364676
 20
-434.60967721775557
 30
0.0
 11
353.00564993452173
 21
-434.60967721775557
 31
0.0
  0
LINE
  5
491
  8
DATA
  6
CONTINUOUS
 62
     7
 10
354.2069666364676
 20
-435.90967721775559
 30
0.0
 11
353.00564993452173
 21
-435.90967721775559
 31
0.0
  0
LINE
  5
492
  8
DATA
  6
CONTINUOUS
 62
     7
 10
349.90696663646759
 20
-434.60967721775557
 30
0.0
 11
351.10828333841351
 21
-434.60967721775557
 31
0.0
  0
LINE
  5
493
  8
DATA
  6
CONTINUOUS
 62
     7
 10
352.7069666364676
 20
-437.40967721775559
 30
0.0
 11
352.7069666364676
 21
-436.20836051581853
 31
0.0
  0
LINE
  5
494
  8
DATA
  6
CONTINUOUS
 62
     7
 10
351.40696663646759
 20
-437.40967721775559
 30
0.0
 11
351.40696663646759
 21
-436.20836051581853
 31
0.0
  0
LINE
  5
495
  8
DATA
  6
CONTINUOUS
 62
     7
 10
349.90696663646759
 20
-435.90967721775559
 30
0.0
 11
351.10828333841351
 21
-435.90967721775559
 31
0.0
  0
ARC
  5
496
  8
DATA
  6
CONTINUOUS
 62
     7
 10
352.05696663646751
 20
-435.25967721775561
 30
0.0
 40
1.15000000000292
 50
124.4173887100967
 51
145.5826112896566
  0
ARC
  5
497
  8
DATA
  6
CONTINUOUS
 62
     7
 10
352.05696663646751
 20
-435.25967721775561
 30
0.0
 40
1.1500000000101409
 50
34.4173887103412
 51
55.582611289905472
  0
ARC
  5
498
  8
DATA
  6
CONTINUOUS
 62
     7
 10
352.05696663646751
 20
-435.25967721775561
 30
0.0
 40
1.15000000000292
 50
304.41738871009687
 51
325.58261128966058
  0
ARC
  5
499
  8
DATA
  6
CONTINUOUS
 62
     7
 10
352.05696663646751
 20
-435.25967721775561
 30
0.0
 40
1.1500000000101409
 50
214.41738871034121
 51
235.5826112899054
  0
LINE
  5
49A
  8
DATA
  6
CONTINUOUS
 62
     7
 10
370.55696663646751
 20
-405.85967721775569
 30
0.0
 11
370.55696663646751
 21
-429.25967721775572
 31
0.0
  0
LINE
  5
49B
  8
DATA
  6
CONTINUOUS
 62
     7
 10
370.55696663646751
 20
-405.85967721775569
 30
0.0
 11
369.05696663646762
 21
-405.85967721775569
 31
0.0
  0
LINE
  5
49C
  8
DATA
  6
CONTINUOUS
 62
     7
 10
370.55696663646751
 20
-429.25967721775572
 30
0.0
 11
369.05696663646762
 21
-429.25967721775572
 31
0.0
  0
LINE
  5
49D
  8
DATA
  6
CONTINUOUS
 62
     7
 10
372.05696663646762
 20
-406.12415002335541
 30
0.0
 11
372.05696663646762
 21
-411.62415002335541
 31
0.0
  0
LINE
  5
49E
  8
DATA
  6
CONTINUOUS
 62
     7
 10
371.05696663646762
 20
-412.62415002335541
 30
0.0
 11
370.55696663646751
 21
-412.62415002335541
 31
0.0
  0
LINE
  5
49F
  8
DATA
  6
CONTINUOUS
 62
     7
 10
370.75696663646761
 20
-412.3241500233554
 30
0.0
 11
370.55696663646751
 21
-412.3241500233554
 31
0.0
  0
LINE
  5
4A0
  8
DATA
  6
CONTINUOUS
 62
     7
 10
371.75696663646761
 20
-406.12415002335541
 30
0.0
 11
371.75696663646761
 21
-411.3241500233554
 31
0.0
  0
LINE
  5
4A1
  8
DATA
  6
CONTINUOUS
 62
     7
 10
371.75696663646761
 20
-406.12415002335541
 30
0.0
 11
372.05696663646762
 21
-406.12415002335541
 31
0.0
  0
ARC
  5
4A2
  8
DATA
  6
CONTINUOUS
 62
     7
 10
370.75696663646761
 20
-411.3241500233554
 30
0.0
 40
1.0
 50
270.0
 51
0.0
  0
ARC
  5
4A3
  8
DATA
  6
CONTINUOUS
 62
     7
 10
371.05696663646762
 20
-411.62415002335541
 30
0.0
 40
1.0
 50
270.0
 51
0.0
  0
TEXT
  5
4A4
  8
DATA
 62
     7
 10
-358.07060586944129
 20
-424.34460996955391
 30
0.0
 40
1.923828125
  1
PROFESSIONAL PRODUCTS  
 41
0.8
 11
-358.07060586944129
 21
-422.42078184455391
 31
0.0
 73
     3
  0
TEXT
  5
4A5
  8
DATA
 62
     7
 10
93.083163837872064
 20
-417.01796577122292
 30
0.0
 40
5.771484375
  1
AFS 224
 41
0.8
 11
93.083163837872064
 21
-411.24648139622292
 31
0.0
 73
     3
  0
TEXT
  5
4A6
  8
DATA
 62
     7
 10
94.733461492455447
 20
-420.72611052661739
 30
0.0
 40
2.0360514322916661
  1
Advanced Feedback
 41
0.8
 11
94.733461492455447
 21
-418.6900590943257
 31
0.0
 73
     3
  0
TEXT
  5
4A7
  8
DATA
 62
     7
 10
94.733461492455447
 20
-423.37194385995087
 30
0.0
 40
2.0360514322916661
  1
Suppression
 41
0.8
 11
94.733461492455447
 21
-421.33589242765919
 31
0.0
 73
     3
  0
POLYLINE
  5
4A8
  8
DATA
  6
CONTINUOUS
 62
     7
 66
     1
 10
0.0
 20
0.0
 30
0.0
 70
   129
  0
VERTEX
  5
C85
  8
DATA
  6
CONTINUOUS
 62
     7
 10
217.0569666364668
 20
-404.04251026649399
 30
0.0
 42
-0.4142135623730951
  0
VERTEX
  5
C86
  8
DATA
  6
CONTINUOUS
 62
     7
 10
217.5569666364668
 20
-403.54251026649399
 30
0.0
  0
VERTEX
  5
C87
  8
DATA
  6
CONTINUOUS
 62
     7
 10
220.0569666364668
 20
-403.54251026649399
 30
0.0
  0
VERTEX
  5
C88
  8
DATA
  6
CONTINUOUS
 62
     7
 10
220.0569666364668
 20
-409.24251026649398
 30
0.0
  0
VERTEX
  5
C89
  8
DATA
  6
CONTINUOUS
 62
     7
 10
217.5569666364668
 20
-409.24251026649398
 30
0.0
 42
-0.4142135623730784
  0
VERTEX
  5
C8A
  8
DATA
  6
CONTINUOUS
 62
     7
 10
217.0569666364668
 20
-408.74251026649398
 30
0.0
  0
SEQEND
  5
C8B
  8
DATA
  6
CONTINUOUS
 62
     7
  0
POLYLINE
  5
4B0
  8
DATA
  6
CONTINUOUS
 62
     7
 66
     1
 10
0.0
 20
0.0
 30
0.0
 70
   129
  0
VERTEX
  5
C8C
  8
DATA
  6
CONTINUOUS
 62
     7
 10
217.0569666364668
 20
-427.47684416901728
 30
0.0
 42
-0.4142135623730951
  0
VERTEX
  5
C8D
  8
DATA
  6
CONTINUOUS
 62
     7
 10
217.5569666364668
 20
-426.97684416901728
 30
0.0
  0
VERTEX
  5
C8E
  8
DATA
  6
CONTINUOUS
 62
     7
 10
220.0569666364668
 20
-426.97684416901728
 30
0.0
  0
VERTEX
  5
C8F
  8
DATA
  6
CONTINUOUS
 62
     7
 10
220.0569666364668
 20
-432.67684416901722
 30
0.0
  0
VERTEX
  5
C90
  8
DATA
  6
CONTINUOUS
 62
     7
 10
217.5569666364668
 20
-432.67684416901722
 30
0.0
 42
-0.4142135623730784
  0
VERTEX
  5
C91
  8
DATA
  6
CONTINUOUS
 62
     7
 10
217.0569666364668
 20
-432.17684416901722
 30
0.0
  0
SEQEND
  5
C92
  8
DATA
  6
CONTINUOUS
 62
     7
  0
CIRCLE
  5
4B8
  8
DATA
  6
CONTINUOUS
 62
     7
 10
-329.83073940456848
 20
-429.51617297496171
 30
0.0
 40
2.8000000000000109
  0
POLYLINE
  5
4B9
  8
DATA
  6
CONTINUOUS
 62
     7
 66
     1
 10
0.0
 20
0.0
 30
0.0
 70
     1
  0
VERTEX
  5
C93
  8
DATA
  6
CONTINUOUS
 62
     7
 10
-328.4307394045685
 20
-429.51617297496171
 30
0.0
  0
VERTEX
  5
C94
  8
DATA
  6
CONTINUOUS
 62
     7
 10
-329.13073940456837
 20
-430.7286085402601
 30
0.0
  0
VERTEX
  5
C95
  8
DATA
  6
CONTINUOUS
 62
     7
 10
-330.53073940456841
 20
-430.7286085402601
 30
0.0
  0
VERTEX
  5
C96
  8
DATA
  6
CONTINUOUS
 62
     7
 10
-331.23073940456851
 20
-429.51617297496171
 30
0.0
  0
VERTEX
  5
C97
  8
DATA
  6
CONTINUOUS
 62
     7
 10
-330.53073940456841
 20
-428.30373740966371
 30
0.0
  0
VERTEX
  5
C98
  8
DATA
  6
CONTINUOUS
 62
     7
 10
-329.13073940456837
 20
-428.30373740966371
 30
0.0
  0
SEQEND
  5
C99
  8
DATA
  6
CONTINUOUS
 62
     7
  0
TEXT
  5
4C1
  8
DATA
 62
     7
 10
233.5088757718411
 20
-555.7321086492808
 30
0.0
 40
12.21630859375
  1
dbx
 41
0.8
 11
233.5088757718411
 21
-543.5158000555308
 31
0.0
 73
     3
  0
LINE
  5
4C2
  8
DATA
  6
CONTINUOUS
 62
     7
 10
217.0569666364668
 20
-403.04251026649399
 30
0.0
 11
217.0569666364668
 21
-398.60686370971922
 31
0.0
  0
LINE
  5
4C3
  8
DATA
  6
CONTINUOUS
 62
     7
 10
217.5569666364668
 20
-398.10686370971922
 30
0.0
 11
220.0569666364668
 21
-398.10686370971922
 31
0.0
  0
ARC
  5
4C4
  8
DATA
  6
CONTINUOUS
 62
     7
 10
217.5569666364668
 20
-398.60686370971922
 30
0.0
 40
0.5
 50
90.0
 51
180.0
  0
ARC
  5
4C5
  8
DATA
  6
CONTINUOUS
 62
     7
 10
217.5569666364668
 20
-403.04251026649399
 30
0.0
 40
0.5
 50
180.0
 51
270.0
  0
POLYLINE
  5
4C6
  8
DATA
  6
CONTINUOUS
 62
     7
 66
     1
 10
0.0
 20
0.0
 30
0.0
 70
     1
  0
VERTEX
  5
C9A
  8
DATA
  6
CONTINUOUS
 62
     7
 10
-360.04129757352678
 20
-395.24900602370019
 30
0.0
  0
VERTEX
  5
C9B
  8
DATA
  6
CONTINUOUS
 62
     7
 10
122.9587024264731
 20
-395.24900602370019
 30
0.0
  0
VERTEX
  5
C9C
  8
DATA
  6
CONTINUOUS
 62
     7
 10
122.9587024264731
 20
-439.74900602370019
 30
0.0
  0
VERTEX
  5
C9D
  8
DATA
  6
CONTINUOUS
 62
     7
 10
-360.04129757352678
 20
-439.74900602370019
 30
0.0
  0
SEQEND
  5
C9E
  8
DATA
  6
CONTINUOUS
 62
     7
  0
POLYLINE
  5
4CC
  8
DATA
  6
CONTINUOUS
 62
     7
 66
     1
 10
0.0
 20
0.0
 30
0.0
 70
     1
  0
VERTEX
  5
C9F
  8
DATA
  6
CONTINUOUS
 62
     7
 10
-360.00118038183518
 20
44.993914327722493
 30
0.0
  0
VERTEX
  5
CA0
  8
DATA
  6
CONTINUOUS
 62
     7
 10
122.9988196181647
 20
44.993914327722493
 30
0.0
  0
VERTEX
  5
CA1
  8
DATA
  6
CONTINUOUS
 62
     7
 10
122.9988196181647
 20
-0.0060856722775025
 30
0.0
  0
VERTEX
  5
CA2
  8
DATA
  6
CONTINUOUS
 62
     7
 10
-360.00118038183518
 20
-0.0060856722775025
 30
0.0
  0
SEQEND
  5
CA3
  8
DATA
  6
CONTINUOUS
 62
     7
  0
LINE
  5
4D2
  8
DATA
  6
CONTINUOUS
 62
     7
 10
100.9988196181647
 20
44.39391432772247
 30
0.0
 11
100.9988196181647
 21
44.993914327722493
 31
0.0
  0
LINE
  5
4D3
  8
DATA
  6
CONTINUOUS
 62
     7
 10
-337.0011803818345
 20
44.39391432772247
 30
0.0
 11
-337.0011803818345
 21
44.993914327722493
 31
0.0
  0
LINE
  5
4D4
  8
DATA
  6
CONTINUOUS
 62
     7
 10
-313.48521117639109
 20
-128.5359271129085
 30
0.0
 11
-313.48521117639109
 21
-130.3463881873717
 31
0.0
  0
LINE
  5
4D5
  8
DATA
  6
CONTINUOUS
 62
     7
 10
-308.68521117639108
 20
-128.5359271129085
 30
0.0
 11
-308.68521117639108
 21
-130.3463881873717
 31
0.0
  0
LINE
  5
4D6
  8
DATA
  6
CONTINUOUS
 62
     7
 10
-119.354387444628
 20
-282.84638818737119
 30
0.0
 11
-116.75438744462799
 21
-282.84638818737119
 31
0.0
  0
LINE
  5
4D7
  8
DATA
  6
CONTINUOUS
 62
     7
 10
-120.854387444628
 20
-281.34638818737108
 30
0.0
 11
-120.854387444628
 21
-279.84638818737108
 31
0.0
  0
LINE
  5
4D8
  8
DATA
  6
CONTINUOUS
 62
     7
 10
-115.25438744462799
 20
-281.34638818737108
 30
0.0
 11
-115.25438744462799
 21
-279.84638818737108
 31
0.0
  0
ARC
  5
4D9
  8
DATA
  6
CONTINUOUS
 62
     7
 10
-119.354387444628
 20
-281.34638818737108
 30
0.0
 40
1.5
 50
180.0
 51
270.0
  0
ARC
  5
4DA
  8
DATA
  6
CONTINUOUS
 62
     7
 10
-116.75438744462799
 20
-281.34638818737108
 30
0.0
 40
1.5
 50
270.0
 51
0.0
  0
CIRCLE
  5
4DB
  8
DATA
  6
CONTINUOUS
 62
     7
 10
-118.0412975735278
 20
-435.15977946363722
 30
0.0
 40
2.7999999999999958
  0
POLYLINE
  5
4DC
  8
DATA
  6
CONTINUOUS
 62
     7
 66
     1
 10
0.0
 20
0.0
 30
0.0
 70
     1
  0
VERTEX
  5
CA4
  8
DATA
  6
CONTINUOUS
 62
     7
 10
-116.64129757352779
 20
-435.22271720230839
 30
0.0
  0
VERTEX
  5
CA5
  8
DATA
  6
CONTINUOUS
 62
     7
 10
-117.3412975735278
 20
-434.01028163701022
 30
0.0
  0
VERTEX
  5
CA6
  8
DATA
  6
CONTINUOUS
 62
     7
 10
-118.7412975735278
 20
-434.01028163701022
 30
0.0
  0
VERTEX
  5
CA7
  8
DATA
  6
CONTINUOUS
 62
     7
 10
-119.44129757352781
 20
-435.22271720230839
 30
0.0
  0
VERTEX
  5
CA8
  8
DATA
  6
CONTINUOUS
 62
     7
 10
-118.7412975735278
 20
-436.43515276760661
 30
0.0
  0
VERTEX
  5
CA9
  8
DATA
  6
CONTINUOUS
 62
     7
 10
-117.3412975735278
 20
-436.43515276760661
 30
0.0
  0
SEQEND
  5
CAA
  8
DATA
  6
CONTINUOUS
 62
     7
  0
POLYLINE
  5
4E4
  8
DATA
  6
CONTINUOUS
 62
     7
 66
     1
 10
0.0
 20
0.0
 30
0.0
 70
     1
  0
VERTEX
  5
CAB
  8
DATA
  6
CONTINUOUS
 62
     7
 10
-224.94129757352681
 20
-408.0990060237001
 30
0.0
  0
VERTEX
  5
CAC
  8
DATA
  6
CONTINUOUS
 62
     7
 10
-219.14129757352691
 20
-408.0990060237001
 30
0.0
  0
VERTEX
  5
CAD
  8
DATA
  6
CONTINUOUS
 62
     7
 10
-219.14129757352691
 20
-413.89900602370011
 30
0.0
  0
VERTEX
  5
CAE
  8
DATA
  6
CONTINUOUS
 62
     7
 10
-224.94129757352681
 20
-413.89900602370011
 30
0.0
  0
SEQEND
  5
CAF
  8
DATA
  6
CONTINUOUS
 62
     7
  0
POLYLINE
  5
4EA
  8
DATA
  6
CONTINUOUS
 62
     7
 66
     1
 10
0.0
 20
0.0
 30
0.0
 70
     1
  0
VERTEX
  5
CB0
  8
DATA
  6
CONTINUOUS
 62
     7
 10
-208.44129757352681
 20
-408.0990060237001
 30
0.0
  0
VERTEX
  5
CB1
  8
DATA
  6
CONTINUOUS
 62
     7
 10
-202.64129757352691
 20
-408.0990060237001
 30
0.0
  0
VERTEX
  5
CB2
  8
DATA
  6
CONTINUOUS
 62
     7
 10
-202.64129757352691
 20
-413.89900602370011
 30
0.0
  0
VERTEX
  5
CB3
  8
DATA
  6
CONTINUOUS
 62
     7
 10
-208.44129757352681
 20
-413.89900602370011
 30
0.0
  0
SEQEND
  5
CB4
  8
DATA
  6
CONTINUOUS
 62
     7
  0
POLYLINE
  5
4F0
  8
DATA
  6
CONTINUOUS
 62
     7
 66
     1
 10
0.0
 20
0.0
 30
0.0
 70
     1
  0
VERTEX
  5
CB5
  8
DATA
  6
CONTINUOUS
 62
     7
 10
-177.4412975735269
 20
-408.0990060237001
 30
0.0
  0
VERTEX
  5
CB6
  8
DATA
  6
CONTINUOUS
 62
     7
 10
-171.64129757352691
 20
-408.0990060237001
 30
0.0
  0
VERTEX
  5
CB7
  8
DATA
  6
CONTINUOUS
 62
     7
 10
-171.64129757352691
 20
-413.89900602370011
 30
0.0
  0
VERTEX
  5
CB8
  8
DATA
  6
CONTINUOUS
 62
     7
 10
-177.4412975735269
 20
-413.89900602370011
 30
0.0
  0
SEQEND
  5
CB9
  8
DATA
  6
CONTINUOUS
 62
     7
  0
POLYLINE
  5
4F6
  8
DATA
  6
CONTINUOUS
 62
     7
 66
     1
 10
0.0
 20
0.0
 30
0.0
 70
     1
  0
VERTEX
  5
CBA
  8
DATA
  6
CONTINUOUS
 62
     7
 10
-145.9412975735269
 20
-408.0990060237001
 30
0.0
  0
VERTEX
  5
CBB
  8
DATA
  6
CONTINUOUS
 62
     7
 10
-140.14129757352691
 20
-408.0990060237001
 30
0.0
  0
VERTEX
  5
CBC
  8
DATA
  6
CONTINUOUS
 62
     7
 10
-140.14129757352691
 20
-413.89900602370011
 30
0.0
  0
VERTEX
  5
CBD
  8
DATA
  6
CONTINUOUS
 62
     7
 10
-145.9412975735269
 20
-413.89900602370011
 30
0.0
  0
SEQEND
  5
CBE
  8
DATA
  6
CONTINUOUS
 62
     7
  0
POLYLINE
  5
4FC
  8
DATA
  6
CONTINUOUS
 62
     7
 66
     1
 10
0.0
 20
0.0
 30
0.0
 70
     1
  0
VERTEX
  5
CBF
  8
DATA
  6
CONTINUOUS
 62
     7
 10
-224.04129757352689
 20
-408.99900602370019
 30
0.0
  0
VERTEX
  5
CC0
  8
DATA
  6
CONTINUOUS
 62
     7
 10
-220.04129757352689
 20
-408.99900602370019
 30
0.0
  0
VERTEX
  5
CC1
  8
DATA
  6
CONTINUOUS
 62
     7
 10
-220.04129757352689
 20
-412.99900602370019
 30
0.0
  0
VERTEX
  5
CC2
  8
DATA
  6
CONTINUOUS
 62
     7
 10
-224.04129757352689
 20
-412.99900602370019
 30
0.0
  0
SEQEND
  5
CC3
  8
DATA
  6
CONTINUOUS
 62
     7
  0
POLYLINE
  5
502
  8
DATA
  6
CONTINUOUS
 62
     7
 66
     1
 10
0.0
 20
0.0
 30
0.0
 70
     1
  0
VERTEX
  5
CC4
  8
DATA
  6
CONTINUOUS
 62
     7
 10
-207.54129757352689
 20
-408.99900602370019
 30
0.0
  0
VERTEX
  5
CC5
  8
DATA
  6
CONTINUOUS
 62
     7
 10
-203.54129757352689
 20
-408.99900602370019
 30
0.0
  0
VERTEX
  5
CC6
  8
DATA
  6
CONTINUOUS
 62
     7
 10
-203.54129757352689
 20
-412.99900602370019
 30
0.0
  0
VERTEX
  5
CC7
  8
DATA
  6
CONTINUOUS
 62
     7
 10
-207.54129757352689
 20
-412.99900602370019
 30
0.0
  0
SEQEND
  5
CC8
  8
DATA
  6
CONTINUOUS
 62
     7
  0
POLYLINE
  5
508
  8
DATA
  6
CONTINUOUS
 62
     7
 66
     1
 10
0.0
 20
0.0
 30
0.0
 70
     1
  0
VERTEX
  5
CC9
  8
DATA
  6
CONTINUOUS
 62
     7
 10
-176.54129757352689
 20
-408.99900602370019
 30
0.0
  0
VERTEX
  5
CCA
  8
DATA
  6
CONTINUOUS
 62
     7
 10
-172.54129757352689
 20
-408.99900602370019
 30
0.0
  0
VERTEX
  5
CCB
  8
DATA
  6
CONTINUOUS
 62
     7
 10
-172.54129757352689
 20
-412.99900602370019
 30
0.0
  0
VERTEX
  5
CCC
  8
DATA
  6
CONTINUOUS
 62
     7
 10
-176.54129757352689
 20
-412.99900602370019
 30
0.0
  0
SEQEND
  5
CCD
  8
DATA
  6
CONTINUOUS
 62
     7
  0
POLYLINE
  5
50E
  8
DATA
  6
CONTINUOUS
 62
     7
 66
     1
 10
0.0
 20
0.0
 30
0.0
 70
     1
  0
VERTEX
  5
CCE
  8
DATA
  6
CONTINUOUS
 62
     7
 10
-145.04129757352689
 20
-408.99900602370019
 30
0.0
  0
VERTEX
  5
CCF
  8
DATA
  6
CONTINUOUS
 62
     7
 10
-141.04129757352689
 20
-408.99900602370019
 30
0.0
  0
VERTEX
  5
CD0
  8
DATA
  6
CONTINUOUS
 62
     7
 10
-141.04129757352689
 20
-412.99900602370019
 30
0.0
  0
VERTEX
  5
CD1
  8
DATA
  6
CONTINUOUS
 62
     7
 10
-145.04129757352689
 20
-412.99900602370019
 30
0.0
  0
SEQEND
  5
CD2
  8
DATA
  6
CONTINUOUS
 62
     7
  0
POLYLINE
  5
514
  8
DATA
  6
CONTINUOUS
 62
     7
 66
     1
 10
0.0
 20
0.0
 30
0.0
 70
     1
  0
VERTEX
  5
CD3
  8
DATA
  6
CONTINUOUS
 62
     7
 10
-224.94129757352681
 20
-421.0990060237001
 30
0.0
  0
VERTEX
  5
CD4
  8
DATA
  6
CONTINUOUS
 62
     7
 10
-219.14129757352691
 20
-421.0990060237001
 30
0.0
  0
VERTEX
  5
CD5
  8
DATA
  6
CONTINUOUS
 62
     7
 10
-219.14129757352691
 20
-426.89900602370011
 30
0.0
  0
VERTEX
  5
CD6
  8
DATA
  6
CONTINUOUS
 62
     7
 10
-224.94129757352681
 20
-426.89900602370011
 30
0.0
  0
SEQEND
  5
CD7
  8
DATA
  6
CONTINUOUS
 62
     7
  0
POLYLINE
  5
51A
  8
DATA
  6
CONTINUOUS
 62
     7
 66
     1
 10
0.0
 20
0.0
 30
0.0
 70
     1
  0
VERTEX
  5
CD8
  8
DATA
  6
CONTINUOUS
 62
     7
 10
-208.44129757352681
 20
-421.0990060237001
 30
0.0
  0
VERTEX
  5
CD9
  8
DATA
  6
CONTINUOUS
 62
     7
 10
-202.64129757352691
 20
-421.0990060237001
 30
0.0
  0
VERTEX
  5
CDA
  8
DATA
  6
CONTINUOUS
 62
     7
 10
-202.64129757352691
 20
-426.89900602370011
 30
0.0
  0
VERTEX
  5
CDB
  8
DATA
  6
CONTINUOUS
 62
     7
 10
-208.44129757352681
 20
-426.89900602370011
 30
0.0
  0
SEQEND
  5
CDC
  8
DATA
  6
CONTINUOUS
 62
     7
  0
POLYLINE
  5
520
  8
DATA
  6
CONTINUOUS
 62
     7
 66
     1
 10
0.0
 20
0.0
 30
0.0
 70
     1
  0
VERTEX
  5
CDD
  8
DATA
  6
CONTINUOUS
 62
     7
 10
-177.4412975735269
 20
-421.0990060237001
 30
0.0
  0
VERTEX
  5
CDE
  8
DATA
  6
CONTINUOUS
 62
     7
 10
-171.64129757352691
 20
-421.0990060237001
 30
0.0
  0
VERTEX
  5
CDF
  8
DATA
  6
CONTINUOUS
 62
     7
 10
-171.64129757352691
 20
-426.89900602370011
 30
0.0
  0
VERTEX
  5
CE0
  8
DATA
  6
CONTINUOUS
 62
     7
 10
-177.4412975735269
 20
-426.89900602370011
 30
0.0
  0
SEQEND
  5
CE1
  8
DATA
  6
CONTINUOUS
 62
     7
  0
POLYLINE
  5
526
  8
DATA
  6
CONTINUOUS
 62
     7
 66
     1
 10
0.0
 20
0.0
 30
0.0
 70
     1
  0
VERTEX
  5
CE2
  8
DATA
  6
CONTINUOUS
 62
     7
 10
-145.9412975735269
 20
-421.0990060237001
 30
0.0
  0
VERTEX
  5
CE3
  8
DATA
  6
CONTINUOUS
 62
     7
 10
-140.14129757352691
 20
-421.0990060237001
 30
0.0
  0
VERTEX
  5
CE4
  8
DATA
  6
CONTINUOUS
 62
     7
 10
-140.14129757352691
 20
-426.89900602370011
 30
0.0
  0
VERTEX
  5
CE5
  8
DATA
  6
CONTINUOUS
 62
     7
 10
-145.9412975735269
 20
-426.89900602370011
 30
0.0
  0
SEQEND
  5
CE6
  8
DATA
  6
CONTINUOUS
 62
     7
  0
POLYLINE
  5
52C
  8
DATA
  6
CONTINUOUS
 62
     7
 66
     1
 10
0.0
 20
0.0
 30
0.0
 70
     1
  0
VERTEX
  5
CE7
  8
DATA
  6
CONTINUOUS
 62
     7
 10
-224.04129757352689
 20
-421.99900602370019
 30
0.0
  0
VERTEX
  5
CE8
  8
DATA
  6
CONTINUOUS
 62
     7
 10
-220.04129757352689
 20
-421.99900602370019
 30
0.0
  0
VERTEX
  5
CE9
  8
DATA
  6
CONTINUOUS
 62
     7
 10
-220.04129757352689
 20
-425.99900602370019
 30
0.0
  0
VERTEX
  5
CEA
  8
DATA
  6
CONTINUOUS
 62
     7
 10
-224.04129757352689
 20
-425.99900602370019
 30
0.0
  0
SEQEND
  5
CEB
  8
DATA
  6
CONTINUOUS
 62
     7
  0
POLYLINE
  5
532
  8
DATA
  6
CONTINUOUS
 62
     7
 66
     1
 10
0.0
 20
0.0
 30
0.0
 70
     1
  0
VERTEX
  5
CEC
  8
DATA
  6
CONTINUOUS
 62
     7
 10
-207.54129757352689
 20
-421.99900602370019
 30
0.0
  0
VERTEX
  5
CED
  8
DATA
  6
CONTINUOUS
 62
     7
 10
-203.54129757352689
 20
-421.99900602370019
 30
0.0
  0
VERTEX
  5
CEE
  8
DATA
  6
CONTINUOUS
 62
     7
 10
-203.54129757352689
 20
-425.99900602370019
 30
0.0
  0
VERTEX
  5
CEF
  8
DATA
  6
CONTINUOUS
 62
     7
 10
-207.54129757352689
 20
-425.99900602370019
 30
0.0
  0
SEQEND
  5
CF0
  8
DATA
  6
CONTINUOUS
 62
     7
  0
POLYLINE
  5
538
  8
DATA
  6
CONTINUOUS
 62
     7
 66
     1
 10
0.0
 20
0.0
 30
0.0
 70
     1
  0
VERTEX
  5
CF1
  8
DATA
  6
CONTINUOUS
 62
     7
 10
-176.54129757352689
 20
-421.99900602370019
 30
0.0
  0
VERTEX
  5
CF2
  8
DATA
  6
CONTINUOUS
 62
     7
 10
-172.54129757352689
 20
-421.99900602370019
 30
0.0
  0
VERTEX
  5
CF3
  8
DATA
  6
CONTINUOUS
 62
     7
 10
-172.54129757352689
 20
-425.99900602370019
 30
0.0
  0
VERTEX
  5
CF4
  8
DATA
  6
CONTINUOUS
 62
     7
 10
-176.54129757352689
 20
-425.99900602370019
 30
0.0
  0
SEQEND
  5
CF5
  8
DATA
  6
CONTINUOUS
 62
     7
  0
POLYLINE
  5
53E
  8
DATA
  6
CONTINUOUS
 62
     7
 66
     1
 10
0.0
 20
0.0
 30
0.0
 70
     1
  0
VERTEX
  5
CF6
  8
DATA
  6
CONTINUOUS
 62
     7
 10
-145.04129757352689
 20
-421.99900602370019
 30
0.0
  0
VERTEX
  5
CF7
  8
DATA
  6
CONTINUOUS
 62
     7
 10
-141.04129757352689
 20
-421.99900602370019
 30
0.0
  0
VERTEX
  5
CF8
  8
DATA
  6
CONTINUOUS
 62
     7
 10
-141.04129757352689
 20
-425.99900602370019
 30
0.0
  0
VERTEX
  5
CF9
  8
DATA
  6
CONTINUOUS
 62
     7
 10
-145.04129757352689
 20
-425.99900602370019
 30
0.0
  0
SEQEND
  5
CFA
  8
DATA
  6
CONTINUOUS
 62
     7
  0
LINE
  5
544
  8
DATA
  6
CONTINUOUS
 62
     7
 10
-262.3412975735269
 20
-409.49900602370019
 30
0.0
 11
-242.04129757352689
 21
-409.49900602370019
 31
0.0
  0
LINE
  5
545
  8
DATA
  6
CONTINUOUS
 62
     7
 10
-262.3412975735269
 20
-412.49900602370008
 30
0.0
 11
-242.04129757352689
 21
-412.49900602370008
 31
0.0
  0
LINE
  5
546
  8
DATA
  6
CONTINUOUS
 62
     7
 10
-239.2812975735269
 20
-409.49900602370019
 30
0.0
 11
-234.04129757352689
 21
-409.49900602370019
 31
0.0
  0
LINE
  5
547
  8
DATA
  6
CONTINUOUS
 62
     7
 10
-239.2812975735269
 20
-412.49900602370008
 30
0.0
 11
-234.04129757352689
 21
-412.49900602370008
 31
0.0
  0
LINE
  5
548
  8
DATA
  6
CONTINUOUS
 62
     7
 10
-262.3412975735269
 20
-412.49900602370008
 30
0.0
 11
-262.3412975735269
 21
-409.39999999999992
 31
0.0
  0
LINE
  5
549
  8
DATA
  6
CONTINUOUS
 62
     7
 10
-242.04129757352689
 20
-412.49900602370008
 30
0.0
 11
-242.04129757352689
 21
-409.49900602370019
 31
0.0
  0
LINE
  5
54A
  8
DATA
  6
CONTINUOUS
 62
     7
 10
-239.2812975735269
 20
-412.49900602370008
 30
0.0
 11
-239.2812975735269
 21
-409.49900602370019
 31
0.0
  0
LINE
  5
54B
  8
DATA
  6
CONTINUOUS
 62
     7
 10
-234.04129757352689
 20
-412.49900602370008
 30
0.0
 11
-234.04129757352689
 21
-409.49900602370019
 31
0.0
  0
POLYLINE
  5
54C
  8
DATA
  6
CONTINUOUS
 62
     7
 66
     1
 10
0.0
 20
0.0
 30
0.0
 70
     1
  0
VERTEX
  5
CFB
  8
DATA
  6
CONTINUOUS
 62
     7
 10
-238.51129757352689
 20
-410.24900602370008
 30
0.0
  0
VERTEX
  5
CFC
  8
DATA
  6
CONTINUOUS
 62
     7
 10
-234.8112975735269
 20
-410.24900602370008
 30
0.0
  0
VERTEX
  5
CFD
  8
DATA
  6
CONTINUOUS
 62
     7
 10
-234.8112975735269
 20
-411.74900602370019
 30
0.0
  0
VERTEX
  5
CFE
  8
DATA
  6
CONTINUOUS
 62
     7
 10
-238.51129757352689
 20
-411.74900602370019
 30
0.0
  0
SEQEND
  5
CFF
  8
DATA
  6
CONTINUOUS
 62
     7
  0
POLYLINE
  5
552
  8
DATA
  6
CONTINUOUS
 62
     7
 66
     1
 10
0.0
 20
0.0
 30
0.0
 70
     1
  0
VERTEX
  5
D00
  8
DATA
  6
CONTINUOUS
 62
     7
 10
-251.5412975735268
 20
-410.24900602370008
 30
0.0
  0
VERTEX
  5
D01
  8
DATA
  6
CONTINUOUS
 62
     7
 10
-247.84129757352679
 20
-410.24900602370008
 30
0.0
  0
VERTEX
  5
D02
  8
DATA
  6
CONTINUOUS
 62
     7
 10
-247.84129757352679
 20
-411.74900602370019
 30
0.0
  0
VERTEX
  5
D03
  8
DATA
  6
CONTINUOUS
 62
     7
 10
-251.5412975735268
 20
-411.74900602370019
 30
0.0
  0
SEQEND
  5
D04
  8
DATA
  6
CONTINUOUS
 62
     7
  0
POLYLINE
  5
558
  8
DATA
  6
CONTINUOUS
 62
     7
 66
     1
 10
0.0
 20
0.0
 30
0.0
 70
     1
  0
VERTEX
  5
D05
  8
DATA
  6
CONTINUOUS
 62
     7
 10
-246.5412975735268
 20
-410.24900602370008
 30
0.0
  0
VERTEX
  5
D06
  8
DATA
  6
CONTINUOUS
 62
     7
 10
-242.84129757352679
 20
-410.24900602370008
 30
0.0
  0
VERTEX
  5
D07
  8
DATA
  6
CONTINUOUS
 62
     7
 10
-242.84129757352679
 20
-411.74900602370019
 30
0.0
  0
VERTEX
  5
D08
  8
DATA
  6
CONTINUOUS
 62
     7
 10
-246.5412975735268
 20
-411.74900602370019
 30
0.0
  0
SEQEND
  5
D09
  8
DATA
  6
CONTINUOUS
 62
     7
  0
POLYLINE
  5
55E
  8
DATA
  6
CONTINUOUS
 62
     7
 66
     1
 10
0.0
 20
0.0
 30
0.0
 70
     1
  0
VERTEX
  5
D0A
  8
DATA
  6
CONTINUOUS
 62
     7
 10
-256.541297573527
 20
-410.24900602370008
 30
0.0
  0
VERTEX
  5
D0B
  8
DATA
  6
CONTINUOUS
 62
     7
 10
-252.84129757352699
 20
-410.24900602370008
 30
0.0
  0
VERTEX
  5
D0C
  8
DATA
  6
CONTINUOUS
 62
     7
 10
-252.84129757352699
 20
-411.74900602370019
 30
0.0
  0
VERTEX
  5
D0D
  8
DATA
  6
CONTINUOUS
 62
     7
 10
-256.541297573527
 20
-411.74900602370019
 30
0.0
  0
SEQEND
  5
D0E
  8
DATA
  6
CONTINUOUS
 62
     7
  0
POLYLINE
  5
564
  8
DATA
  6
CONTINUOUS
 62
     7
 66
     1
 10
0.0
 20
0.0
 30
0.0
 70
     1
  0
VERTEX
  5
D0F
  8
DATA
  6
CONTINUOUS
 62
     7
 10
-261.541297573527
 20
-410.24900602370008
 30
0.0
  0
VERTEX
  5
D10
  8
DATA
  6
CONTINUOUS
 62
     7
 10
-257.84129757352702
 20
-410.24900602370008
 30
0.0
  0
VERTEX
  5
D11
  8
DATA
  6
CONTINUOUS
 62
     7
 10
-257.84129757352702
 20
-411.74900602370019
 30
0.0
  0
VERTEX
  5
D12
  8
DATA
  6
CONTINUOUS
 62
     7
 10
-261.541297573527
 20
-411.74900602370019
 30
0.0
  0
SEQEND
  5
D13
  8
DATA
  6
CONTINUOUS
 62
     7
  0
LINE
  5
56A
  8
DATA
  6
CONTINUOUS
 62
     7
 10
-262.3412975735269
 20
-422.49900602370019
 30
0.0
 11
-242.04129757352689
 21
-422.49900602370019
 31
0.0
  0
LINE
  5
56B
  8
DATA
  6
CONTINUOUS
 62
     7
 10
-262.3412975735269
 20
-425.49900602370019
 30
0.0
 11
-242.04129757352689
 21
-425.49900602370019
 31
0.0
  0
LINE
  5
56C
  8
DATA
  6
CONTINUOUS
 62
     7
 10
-239.2812975735269
 20
-422.49900602370019
 30
0.0
 11
-234.04129757352689
 21
-422.49900602370019
 31
0.0
  0
LINE
  5
56D
  8
DATA
  6
CONTINUOUS
 62
     7
 10
-239.2812975735269
 20
-425.49900602370019
 30
0.0
 11
-234.04129757352689
 21
-425.49900602370019
 31
0.0
  0
LINE
  5
56E
  8
DATA
  6
CONTINUOUS
 62
     7
 10
-262.3412975735269
 20
-425.49900602370019
 30
0.0
 11
-262.3412975735269
 21
-422.39999999999998
 31
0.0
  0
LINE
  5
56F
  8
DATA
  6
CONTINUOUS
 62
     7
 10
-242.04129757352689
 20
-425.49900602370019
 30
0.0
 11
-242.04129757352689
 21
-422.49900602370019
 31
0.0
  0
LINE
  5
570
  8
DATA
  6
CONTINUOUS
 62
     7
 10
-239.2812975735269
 20
-425.49900602370019
 30
0.0
 11
-239.2812975735269
 21
-422.49900602370019
 31
0.0
  0
LINE
  5
571
  8
DATA
  6
CONTINUOUS
 62
     7
 10
-234.04129757352689
 20
-425.49900602370019
 30
0.0
 11
-234.04129757352689
 21
-422.49900602370019
 31
0.0
  0
POLYLINE
  5
572
  8
DATA
  6
CONTINUOUS
 62
     7
 66
     1
 10
0.0
 20
0.0
 30
0.0
 70
     1
  0
VERTEX
  5
D14
  8
DATA
  6
CONTINUOUS
 62
     7
 10
-238.51129757352689
 20
-423.24900602370019
 30
0.0
  0
VERTEX
  5
D15
  8
DATA
  6
CONTINUOUS
 62
     7
 10
-234.8112975735269
 20
-423.24900602370019
 30
0.0
  0
VERTEX
  5
D16
  8
DATA
  6
CONTINUOUS
 62
     7
 10
-234.8112975735269
 20
-424.74900602370019
 30
0.0
  0
VERTEX
  5
D17
  8
DATA
  6
CONTINUOUS
 62
     7
 10
-238.51129757352689
 20
-424.74900602370019
 30
0.0
  0
SEQEND
  5
D18
  8
DATA
  6
CONTINUOUS
 62
     7
  0
POLYLINE
  5
578
  8
DATA
  6
CONTINUOUS
 62
     7
 66
     1
 10
0.0
 20
0.0
 30
0.0
 70
     1
  0
VERTEX
  5
D19
  8
DATA
  6
CONTINUOUS
 62
     7
 10
-251.5412975735268
 20
-423.24900602370019
 30
0.0
  0
VERTEX
  5
D1A
  8
DATA
  6
CONTINUOUS
 62
     7
 10
-247.84129757352679
 20
-423.24900602370019
 30
0.0
  0
VERTEX
  5
D1B
  8
DATA
  6
CONTINUOUS
 62
     7
 10
-247.84129757352679
 20
-424.74900602370019
 30
0.0
  0
VERTEX
  5
D1C
  8
DATA
  6
CONTINUOUS
 62
     7
 10
-251.5412975735268
 20
-424.74900602370019
 30
0.0
  0
SEQEND
  5
D1D
  8
DATA
  6
CONTINUOUS
 62
     7
  0
POLYLINE
  5
57E
  8
DATA
  6
CONTINUOUS
 62
     7
 66
     1
 10
0.0
 20
0.0
 30
0.0
 70
     1
  0
VERTEX
  5
D1E
  8
DATA
  6
CONTINUOUS
 62
     7
 10
-246.5412975735268
 20
-423.24900602370019
 30
0.0
  0
VERTEX
  5
D1F
  8
DATA
  6
CONTINUOUS
 62
     7
 10
-242.84129757352679
 20
-423.24900602370019
 30
0.0
  0
VERTEX
  5
D20
  8
DATA
  6
CONTINUOUS
 62
     7
 10
-242.84129757352679
 20
-424.74900602370019
 30
0.0
  0
VERTEX
  5
D21
  8
DATA
  6
CONTINUOUS
 62
     7
 10
-246.5412975735268
 20
-424.74900602370019
 30
0.0
  0
SEQEND
  5
D22
  8
DATA
  6
CONTINUOUS
 62
     7
  0
POLYLINE
  5
584
  8
DATA
  6
CONTINUOUS
 62
     7
 66
     1
 10
0.0
 20
0.0
 30
0.0
 70
     1
  0
VERTEX
  5
D23
  8
DATA
  6
CONTINUOUS
 62
     7
 10
-256.541297573527
 20
-423.24900602370019
 30
0.0
  0
VERTEX
  5
D24
  8
DATA
  6
CONTINUOUS
 62
     7
 10
-252.84129757352699
 20
-423.24900602370019
 30
0.0
  0
VERTEX
  5
D25
  8
DATA
  6
CONTINUOUS
 62
     7
 10
-252.84129757352699
 20
-424.74900602370019
 30
0.0
  0
VERTEX
  5
D26
  8
DATA
  6
CONTINUOUS
 62
     7
 10
-256.541297573527
 20
-424.74900602370019
 30
0.0
  0
SEQEND
  5
D27
  8
DATA
  6
CONTINUOUS
 62
     7
  0
POLYLINE
  5
58A
  8
DATA
  6
CONTINUOUS
 62
     7
 66
     1
 10
0.0
 20
0.0
 30
0.0
 70
     1
  0
VERTEX
  5
D28
  8
DATA
  6
CONTINUOUS
 62
     7
 10
-261.541297573527
 20
-423.24900602370019
 30
0.0
  0
VERTEX
  5
D29
  8
DATA
  6
CONTINUOUS
 62
     7
 10
-257.84129757352702
 20
-423.24900602370019
 30
0.0
  0
VERTEX
  5
D2A
  8
DATA
  6
CONTINUOUS
 62
     7
 10
-257.84129757352702
 20
-424.74900602370019
 30
0.0
  0
VERTEX
  5
D2B
  8
DATA
  6
CONTINUOUS
 62
     7
 10
-261.541297573527
 20
-424.74900602370019
 30
0.0
  0
SEQEND
  5
D2C
  8
DATA
  6
CONTINUOUS
 62
     7
  0
POLYLINE
  5
590
  8
DATA
  6
CONTINUOUS
 62
     7
 66
     1
 10
0.0
 20
0.0
 30
0.0
 70
     1
  0
VERTEX
  5
D2D
  8
DATA
  6
CONTINUOUS
 62
     7
 10
-113.0433672200551
 20
-410.24900602370008
 30
0.0
  0
VERTEX
  5
D2E
  8
DATA
  6
CONTINUOUS
 62
     7
 10
-109.3433672200551
 20
-410.24900602370008
 30
0.0
  0
VERTEX
  5
D2F
  8
DATA
  6
CONTINUOUS
 62
     7
 10
-109.3433672200551
 20
-411.74900602370019
 30
0.0
  0
VERTEX
  5
D30
  8
DATA
  6
CONTINUOUS
 62
     7
 10
-113.0433672200551
 20
-411.74900602370019
 30
0.0
  0
SEQEND
  5
D31
  8
DATA
  6
CONTINUOUS
 62
     7
  0
POLYLINE
  5
596
  8
DATA
  6
CONTINUOUS
 62
     7
 66
     1
 10
0.0
 20
0.0
 30
0.0
 70
     1
  0
VERTEX
  5
D32
  8
DATA
  6
CONTINUOUS
 62
     7
 10
-108.0433672200551
 20
-410.24900602370008
 30
0.0
  0
VERTEX
  5
D33
  8
DATA
  6
CONTINUOUS
 62
     7
 10
-104.3433672200551
 20
-410.24900602370008
 30
0.0
  0
VERTEX
  5
D34
  8
DATA
  6
CONTINUOUS
 62
     7
 10
-104.3433672200551
 20
-411.74900602370019
 30
0.0
  0
VERTEX
  5
D35
  8
DATA
  6
CONTINUOUS
 62
     7
 10
-108.0433672200551
 20
-411.74900602370019
 30
0.0
  0
SEQEND
  5
D36
  8
DATA
  6
CONTINUOUS
 62
     7
  0
POLYLINE
  5
59C
  8
DATA
  6
CONTINUOUS
 62
     7
 66
     1
 10
0.0
 20
0.0
 30
0.0
 70
     1
  0
VERTEX
  5
D37
  8
DATA
  6
CONTINUOUS
 62
     7
 10
-103.0433672200551
 20
-410.24900602370008
 30
0.0
  0
VERTEX
  5
D38
  8
DATA
  6
CONTINUOUS
 62
     7
 10
-99.343367220055129
 20
-410.24900602370008
 30
0.0
  0
VERTEX
  5
D39
  8
DATA
  6
CONTINUOUS
 62
     7
 10
-99.343367220055129
 20
-411.74900602370019
 30
0.0
  0
VERTEX
  5
D3A
  8
DATA
  6
CONTINUOUS
 62
     7
 10
-103.0433672200551
 20
-411.74900602370019
 30
0.0
  0
SEQEND
  5
D3B
  8
DATA
  6
CONTINUOUS
 62
     7
  0
POLYLINE
  5
5A2
  8
DATA
  6
CONTINUOUS
 62
     7
 66
     1
 10
0.0
 20
0.0
 30
0.0
 70
     1
  0
VERTEX
  5
D3C
  8
DATA
  6
CONTINUOUS
 62
     7
 10
-98.043367220055146
 20
-410.24900602370008
 30
0.0
  0
VERTEX
  5
D3D
  8
DATA
  6
CONTINUOUS
 62
     7
 10
-94.343367220055129
 20
-410.24900602370008
 30
0.0
  0
VERTEX
  5
D3E
  8
DATA
  6
CONTINUOUS
 62
     7
 10
-94.343367220055129
 20
-411.74900602370019
 30
0.0
  0
VERTEX
  5
D3F
  8
DATA
  6
CONTINUOUS
 62
     7
 10
-98.043367220055146
 20
-411.74900602370019
 30
0.0
  0
SEQEND
  5
D40
  8
DATA
  6
CONTINUOUS
 62
     7
  0
POLYLINE
  5
5A8
  8
DATA
  6
CONTINUOUS
 62
     7
 66
     1
 10
0.0
 20
0.0
 30
0.0
 70
     1
  0
VERTEX
  5
D41
  8
DATA
  6
CONTINUOUS
 62
     7
 10
-93.043367220055146
 20
-410.24900602370008
 30
0.0
  0
VERTEX
  5
D42
  8
DATA
  6
CONTINUOUS
 62
     7
 10
-89.343367220055086
 20
-410.24900602370008
 30
0.0
  0
VERTEX
  5
D43
  8
DATA
  6
CONTINUOUS
 62
     7
 10
-89.343367220055086
 20
-411.74900602370019
 30
0.0
  0
VERTEX
  5
D44
  8
DATA
  6
CONTINUOUS
 62
     7
 10
-93.043367220055146
 20
-411.74900602370019
 30
0.0
  0
SEQEND
  5
D45
  8
DATA
  6
CONTINUOUS
 62
     7
  0
POLYLINE
  5
5AE
  8
DATA
  6
CONTINUOUS
 62
     7
 66
     1
 10
0.0
 20
0.0
 30
0.0
 70
     1
  0
VERTEX
  5
D46
  8
DATA
  6
CONTINUOUS
 62
     7
 10
-88.043367220055146
 20
-410.24900602370008
 30
0.0
  0
VERTEX
  5
D47
  8
DATA
  6
CONTINUOUS
 62
     7
 10
-84.343367220055086
 20
-410.24900602370008
 30
0.0
  0
VERTEX
  5
D48
  8
DATA
  6
CONTINUOUS
 62
     7
 10
-84.343367220055086
 20
-411.74900602370019
 30
0.0
  0
VERTEX
  5
D49
  8
DATA
  6
CONTINUOUS
 62
     7
 10
-88.043367220055146
 20
-411.74900602370019
 30
0.0
  0
SEQEND
  5
D4A
  8
DATA
  6
CONTINUOUS
 62
     7
  0
POLYLINE
  5
5B4
  8
DATA
  6
CONTINUOUS
 62
     7
 66
     1
 10
0.0
 20
0.0
 30
0.0
 70
     1
  0
VERTEX
  5
D4B
  8
DATA
  6
CONTINUOUS
 62
     7
 10
-83.043367220055146
 20
-410.24900602370008
 30
0.0
  0
VERTEX
  5
D4C
  8
DATA
  6
CONTINUOUS
 62
     7
 10
-79.3433672200551
 20
-410.24900602370008
 30
0.0
  0
VERTEX
  5
D4D
  8
DATA
  6
CONTINUOUS
 62
     7
 10
-79.3433672200551
 20
-411.74900602370019
 30
0.0
  0
VERTEX
  5
D4E
  8
DATA
  6
CONTINUOUS
 62
     7
 10
-83.043367220055146
 20
-411.74900602370019
 30
0.0
  0
SEQEND
  5
D4F
  8
DATA
  6
CONTINUOUS
 62
     7
  0
POLYLINE
  5
5BA
  8
DATA
  6
CONTINUOUS
 62
     7
 66
     1
 10
0.0
 20
0.0
 30
0.0
 70
     1
  0
VERTEX
  5
D50
  8
DATA
  6
CONTINUOUS
 62
     7
 10
-78.043367220055146
 20
-410.24900602370008
 30
0.0
  0
VERTEX
  5
D51
  8
DATA
  6
CONTINUOUS
 62
     7
 10
-74.3433672200551
 20
-410.24900602370008
 30
0.0
  0
VERTEX
  5
D52
  8
DATA
  6
CONTINUOUS
 62
     7
 10
-74.3433672200551
 20
-411.74900602370019
 30
0.0
  0
VERTEX
  5
D53
  8
DATA
  6
CONTINUOUS
 62
     7
 10
-78.043367220055146
 20
-411.74900602370019
 30
0.0
  0
SEQEND
  5
D54
  8
DATA
  6
CONTINUOUS
 62
     7
  0
POLYLINE
  5
5C0
  8
DATA
  6
CONTINUOUS
 62
     7
 66
     1
 10
0.0
 20
0.0
 30
0.0
 70
     1
  0
VERTEX
  5
D55
  8
DATA
  6
CONTINUOUS
 62
     7
 10
-73.043367220055146
 20
-410.24900602370008
 30
0.0
  0
VERTEX
  5
D56
  8
DATA
  6
CONTINUOUS
 62
     7
 10
-69.343367220055114
 20
-410.24900602370008
 30
0.0
  0
VERTEX
  5
D57
  8
DATA
  6
CONTINUOUS
 62
     7
 10
-69.343367220055114
 20
-411.74900602370019
 30
0.0
  0
VERTEX
  5
D58
  8
DATA
  6
CONTINUOUS
 62
     7
 10
-73.043367220055146
 20
-411.74900602370019
 30
0.0
  0
SEQEND
  5
D59
  8
DATA
  6
CONTINUOUS
 62
     7
  0
POLYLINE
  5
5C6
  8
DATA
  6
CONTINUOUS
 62
     7
 66
     1
 10
0.0
 20
0.0
 30
0.0
 70
     1
  0
VERTEX
  5
D5A
  8
DATA
  6
CONTINUOUS
 62
     7
 10
-68.043367220055146
 20
-410.24900602370008
 30
0.0
  0
VERTEX
  5
D5B
  8
DATA
  6
CONTINUOUS
 62
     7
 10
-64.343367220055114
 20
-410.24900602370008
 30
0.0
  0
VERTEX
  5
D5C
  8
DATA
  6
CONTINUOUS
 62
     7
 10
-64.343367220055114
 20
-411.74900602370019
 30
0.0
  0
VERTEX
  5
D5D
  8
DATA
  6
CONTINUOUS
 62
     7
 10
-68.043367220055146
 20
-411.74900602370019
 30
0.0
  0
SEQEND
  5
D5E
  8
DATA
  6
CONTINUOUS
 62
     7
  0
POLYLINE
  5
5CC
  8
DATA
  6
CONTINUOUS
 62
     7
 66
     1
 10
0.0
 20
0.0
 30
0.0
 70
     1
  0
VERTEX
  5
D5F
  8
DATA
  6
CONTINUOUS
 62
     7
 10
-63.043367220055153
 20
-410.24900602370008
 30
0.0
  0
VERTEX
  5
D60
  8
DATA
  6
CONTINUOUS
 62
     7
 10
-59.343367220055107
 20
-410.24900602370008
 30
0.0
  0
VERTEX
  5
D61
  8
DATA
  6
CONTINUOUS
 62
     7
 10
-59.343367220055107
 20
-411.74900602370019
 30
0.0
  0
VERTEX
  5
D62
  8
DATA
  6
CONTINUOUS
 62
     7
 10
-63.043367220055153
 20
-411.74900602370019
 30
0.0
  0
SEQEND
  5
D63
  8
DATA
  6
CONTINUOUS
 62
     7
  0
POLYLINE
  5
5D2
  8
DATA
  6
CONTINUOUS
 62
     7
 66
     1
 10
0.0
 20
0.0
 30
0.0
 70
     1
  0
VERTEX
  5
D64
  8
DATA
  6
CONTINUOUS
 62
     7
 10
-58.043367220055153
 20
-410.24900602370008
 30
0.0
  0
VERTEX
  5
D65
  8
DATA
  6
CONTINUOUS
 62
     7
 10
-54.343367220055107
 20
-410.24900602370008
 30
0.0
  0
VERTEX
  5
D66
  8
DATA
  6
CONTINUOUS
 62
     7
 10
-54.343367220055107
 20
-411.74900602370019
 30
0.0
  0
VERTEX
  5
D67
  8
DATA
  6
CONTINUOUS
 62
     7
 10
-58.043367220055153
 20
-411.74900602370019
 30
0.0
  0
SEQEND
  5
D68
  8
DATA
  6
CONTINUOUS
 62
     7
  0
LINE
  5
5D8
  8
DATA
  6
CONTINUOUS
 62
     7
 10
-53.3433672200551
 20
-409.49900602370019
 30
0.0
 11
-53.3433672200551
 21
-412.49900602370008
 31
0.0
  0
LINE
  5
5D9
  8
DATA
  6
CONTINUOUS
 62
     7
 10
-53.3433672200551
 20
-409.49900602370019
 30
0.0
 11
-114.0412975735269
 21
-409.49900602370019
 31
0.0
  0
LINE
  5
5DA
  8
DATA
  6
CONTINUOUS
 62
     7
 10
-53.3433672200551
 20
-412.49900602370008
 30
0.0
 11
-114.0412975735269
 21
-412.49900602370008
 31
0.0
  0
LINE
  5
5DB
  8
DATA
  6
CONTINUOUS
 62
     7
 10
-114.0412975735269
 20
-412.49900602370008
 30
0.0
 11
-114.0412975735269
 21
-409.49900602370019
 31
0.0
  0
POLYLINE
  5
5DC
  8
DATA
  6
CONTINUOUS
 62
     7
 66
     1
 10
0.0
 20
0.0
 30
0.0
 70
     1
  0
VERTEX
  5
D69
  8
DATA
  6
CONTINUOUS
 62
     7
 10
-48.043367220055153
 20
-410.24900602370008
 30
0.0
  0
VERTEX
  5
D6A
  8
DATA
  6
CONTINUOUS
 62
     7
 10
-44.343367220055107
 20
-410.24900602370008
 30
0.0
  0
VERTEX
  5
D6B
  8
DATA
  6
CONTINUOUS
 62
     7
 10
-44.343367220055107
 20
-411.74900602370019
 30
0.0
  0
VERTEX
  5
D6C
  8
DATA
  6
CONTINUOUS
 62
     7
 10
-48.043367220055153
 20
-411.74900602370019
 30
0.0
  0
SEQEND
  5
D6D
  8
DATA
  6
CONTINUOUS
 62
     7
  0
POLYLINE
  5
5E2
  8
DATA
  6
CONTINUOUS
 62
     7
 66
     1
 10
0.0
 20
0.0
 30
0.0
 70
     1
  0
VERTEX
  5
D6E
  8
DATA
  6
CONTINUOUS
 62
     7
 10
-43.043367220055153
 20
-410.24900602370008
 30
0.0
  0
VERTEX
  5
D6F
  8
DATA
  6
CONTINUOUS
 62
     7
 10
-39.343367220055107
 20
-410.24900602370008
 30
0.0
  0
VERTEX
  5
D70
  8
DATA
  6
CONTINUOUS
 62
     7
 10
-39.343367220055107
 20
-411.74900602370019
 30
0.0
  0
VERTEX
  5
D71
  8
DATA
  6
CONTINUOUS
 62
     7
 10
-43.043367220055153
 20
-411.74900602370019
 30
0.0
  0
SEQEND
  5
D72
  8
DATA
  6
CONTINUOUS
 62
     7
  0
POLYLINE
  5
5E8
  8
DATA
  6
CONTINUOUS
 62
     7
 66
     1
 10
0.0
 20
0.0
 30
0.0
 70
     1
  0
VERTEX
  5
D73
  8
DATA
  6
CONTINUOUS
 62
     7
 10
-38.043367220055153
 20
-410.24900602370008
 30
0.0
  0
VERTEX
  5
D74
  8
DATA
  6
CONTINUOUS
 62
     7
 10
-34.343367220055107
 20
-410.24900602370008
 30
0.0
  0
VERTEX
  5
D75
  8
DATA
  6
CONTINUOUS
 62
     7
 10
-34.343367220055107
 20
-411.74900602370019
 30
0.0
  0
VERTEX
  5
D76
  8
DATA
  6
CONTINUOUS
 62
     7
 10
-38.043367220055153
 20
-411.74900602370019
 30
0.0
  0
SEQEND
  5
D77
  8
DATA
  6
CONTINUOUS
 62
     7
  0
POLYLINE
  5
5EE
  8
DATA
  6
CONTINUOUS
 62
     7
 66
     1
 10
0.0
 20
0.0
 30
0.0
 70
     1
  0
VERTEX
  5
D78
  8
DATA
  6
CONTINUOUS
 62
     7
 10
-33.04336722005516
 20
-410.24900602370008
 30
0.0
  0
VERTEX
  5
D79
  8
DATA
  6
CONTINUOUS
 62
     7
 10
-29.343367220055111
 20
-410.24900602370008
 30
0.0
  0
VERTEX
  5
D7A
  8
DATA
  6
CONTINUOUS
 62
     7
 10
-29.343367220055111
 20
-411.74900602370019
 30
0.0
  0
VERTEX
  5
D7B
  8
DATA
  6
CONTINUOUS
 62
     7
 10
-33.04336722005516
 20
-411.74900602370019
 30
0.0
  0
SEQEND
  5
D7C
  8
DATA
  6
CONTINUOUS
 62
     7
  0
POLYLINE
  5
5F4
  8
DATA
  6
CONTINUOUS
 62
     7
 66
     1
 10
0.0
 20
0.0
 30
0.0
 70
     1
  0
VERTEX
  5
D7D
  8
DATA
  6
CONTINUOUS
 62
     7
 10
-28.04336722005516
 20
-410.24900602370008
 30
0.0
  0
VERTEX
  5
D7E
  8
DATA
  6
CONTINUOUS
 62
     7
 10
-24.343367220055111
 20
-410.24900602370008
 30
0.0
  0
VERTEX
  5
D7F
  8
DATA
  6
CONTINUOUS
 62
     7
 10
-24.343367220055111
 20
-411.74900602370019
 30
0.0
  0
VERTEX
  5
D80
  8
DATA
  6
CONTINUOUS
 62
     7
 10
-28.04336722005516
 20
-411.74900602370019
 30
0.0
  0
SEQEND
  5
D81
  8
DATA
  6
CONTINUOUS
 62
     7
  0
POLYLINE
  5
5FA
  8
DATA
  6
CONTINUOUS
 62
     7
 66
     1
 10
0.0
 20
0.0
 30
0.0
 70
     1
  0
VERTEX
  5
D82
  8
DATA
  6
CONTINUOUS
 62
     7
 10
-23.04336722005516
 20
-410.24900602370008
 30
0.0
  0
VERTEX
  5
D83
  8
DATA
  6
CONTINUOUS
 62
     7
 10
-19.343367220055111
 20
-410.24900602370008
 30
0.0
  0
VERTEX
  5
D84
  8
DATA
  6
CONTINUOUS
 62
     7
 10
-19.343367220055111
 20
-411.74900602370019
 30
0.0
  0
VERTEX
  5
D85
  8
DATA
  6
CONTINUOUS
 62
     7
 10
-23.04336722005516
 20
-411.74900602370019
 30
0.0
  0
SEQEND
  5
D86
  8
DATA
  6
CONTINUOUS
 62
     7
  0
POLYLINE
  5
600
  8
DATA
  6
CONTINUOUS
 62
     7
 66
     1
 10
0.0
 20
0.0
 30
0.0
 70
     1
  0
VERTEX
  5
D87
  8
DATA
  6
CONTINUOUS
 62
     7
 10
-18.04336722005516
 20
-410.24900602370008
 30
0.0
  0
VERTEX
  5
D88
  8
DATA
  6
CONTINUOUS
 62
     7
 10
-14.343367220055111
 20
-410.24900602370008
 30
0.0
  0
VERTEX
  5
D89
  8
DATA
  6
CONTINUOUS
 62
     7
 10
-14.343367220055111
 20
-411.74900602370019
 30
0.0
  0
VERTEX
  5
D8A
  8
DATA
  6
CONTINUOUS
 62
     7
 10
-18.04336722005516
 20
-411.74900602370019
 30
0.0
  0
SEQEND
  5
D8B
  8
DATA
  6
CONTINUOUS
 62
     7
  0
POLYLINE
  5
606
  8
DATA
  6
CONTINUOUS
 62
     7
 66
     1
 10
0.0
 20
0.0
 30
0.0
 70
     1
  0
VERTEX
  5
D8C
  8
DATA
  6
CONTINUOUS
 62
     7
 10
-13.04336722005516
 20
-410.24900602370008
 30
0.0
  0
VERTEX
  5
D8D
  8
DATA
  6
CONTINUOUS
 62
     7
 10
-9.3433672200551143
 20
-410.24900602370008
 30
0.0
  0
VERTEX
  5
D8E
  8
DATA
  6
CONTINUOUS
 62
     7
 10
-9.3433672200551143
 20
-411.74900602370019
 30
0.0
  0
VERTEX
  5
D8F
  8
DATA
  6
CONTINUOUS
 62
     7
 10
-13.04336722005516
 20
-411.74900602370019
 30
0.0
  0
SEQEND
  5
D90
  8
DATA
  6
CONTINUOUS
 62
     7
  0
POLYLINE
  5
60C
  8
DATA
  6
CONTINUOUS
 62
     7
 66
     1
 10
0.0
 20
0.0
 30
0.0
 70
     1
  0
VERTEX
  5
D91
  8
DATA
  6
CONTINUOUS
 62
     7
 10
-8.043367220055158
 20
-410.24900602370008
 30
0.0
  0
VERTEX
  5
D92
  8
DATA
  6
CONTINUOUS
 62
     7
 10
-4.3433672200551134
 20
-410.24900602370008
 30
0.0
  0
VERTEX
  5
D93
  8
DATA
  6
CONTINUOUS
 62
     7
 10
-4.3433672200551134
 20
-411.74900602370019
 30
0.0
  0
VERTEX
  5
D94
  8
DATA
  6
CONTINUOUS
 62
     7
 10
-8.043367220055158
 20
-411.74900602370019
 30
0.0
  0
SEQEND
  5
D95
  8
DATA
  6
CONTINUOUS
 62
     7
  0
POLYLINE
  5
612
  8
DATA
  6
CONTINUOUS
 62
     7
 66
     1
 10
0.0
 20
0.0
 30
0.0
 70
     1
  0
VERTEX
  5
D96
  8
DATA
  6
CONTINUOUS
 62
     7
 10
-3.0433672200551589
 20
-410.24900602370008
 30
0.0
  0
VERTEX
  5
D97
  8
DATA
  6
CONTINUOUS
 62
     7
 10
0.6566327799448857
 20
-410.24900602370008
 30
0.0
  0
VERTEX
  5
D98
  8
DATA
  6
CONTINUOUS
 62
     7
 10
0.6566327799448857
 20
-411.74900602370019
 30
0.0
  0
VERTEX
  5
D99
  8
DATA
  6
CONTINUOUS
 62
     7
 10
-3.0433672200551589
 20
-411.74900602370019
 30
0.0
  0
SEQEND
  5
D9A
  8
DATA
  6
CONTINUOUS
 62
     7
  0
POLYLINE
  5
618
  8
DATA
  6
CONTINUOUS
 62
     7
 66
     1
 10
0.0
 20
0.0
 30
0.0
 70
     1
  0
VERTEX
  5
D9B
  8
DATA
  6
CONTINUOUS
 62
     7
 10
1.95663277994484
 20
-410.24900602370008
 30
0.0
  0
VERTEX
  5
D9C
  8
DATA
  6
CONTINUOUS
 62
     7
 10
5.6566327799448848
 20
-410.24900602370008
 30
0.0
  0
VERTEX
  5
D9D
  8
DATA
  6
CONTINUOUS
 62
     7
 10
5.6566327799448848
 20
-411.74900602370019
 30
0.0
  0
VERTEX
  5
D9E
  8
DATA
  6
CONTINUOUS
 62
     7
 10
1.95663277994484
 20
-411.74900602370019
 30
0.0
  0
SEQEND
  5
D9F
  8
DATA
  6
CONTINUOUS
 62
     7
  0
POLYLINE
  5
61E
  8
DATA
  6
CONTINUOUS
 62
     7
 66
     1
 10
0.0
 20
0.0
 30
0.0
 70
     1
  0
VERTEX
  5
DA0
  8
DATA
  6
CONTINUOUS
 62
     7
 10
6.9566327799448402
 20
-410.24900602370008
 30
0.0
  0
VERTEX
  5
DA1
  8
DATA
  6
CONTINUOUS
 62
     7
 10
10.656632779944889
 20
-410.24900602370008
 30
0.0
  0
VERTEX
  5
DA2
  8
DATA
  6
CONTINUOUS
 62
     7
 10
10.656632779944889
 20
-411.74900602370019
 30
0.0
  0
VERTEX
  5
DA3
  8
DATA
  6
CONTINUOUS
 62
     7
 10
6.9566327799448402
 20
-411.74900602370019
 30
0.0
  0
SEQEND
  5
DA4
  8
DATA
  6
CONTINUOUS
 62
     7
  0
LINE
  5
624
  8
DATA
  6
CONTINUOUS
 62
     7
 10
11.656632779944911
 20
-409.49900602370019
 30
0.0
 11
11.656632779944911
 21
-412.49900602370008
 31
0.0
  0
LINE
  5
625
  8
DATA
  6
CONTINUOUS
 62
     7
 10
11.656632779944911
 20
-409.49900602370019
 30
0.0
 11
-49.04129757352689
 21
-409.49900602370019
 31
0.0
  0
LINE
  5
626
  8
DATA
  6
CONTINUOUS
 62
     7
 10
11.656632779944911
 20
-412.49900602370008
 30
0.0
 11
-49.04129757352689
 21
-412.49900602370008
 31
0.0
  0
LINE
  5
627
  8
DATA
  6
CONTINUOUS
 62
     7
 10
-49.04129757352689
 20
-412.49900602370008
 30
0.0
 11
-49.04129757352689
 21
-409.49900602370019
 31
0.0
  0
POLYLINE
  5
628
  8
DATA
  6
CONTINUOUS
 62
     7
 66
     1
 10
0.0
 20
0.0
 30
0.0
 70
     1
  0
VERTEX
  5
DA5
  8
DATA
  6
CONTINUOUS
 62
     7
 10
-113.0433672200551
 20
-423.24900602370019
 30
0.0
  0
VERTEX
  5
DA6
  8
DATA
  6
CONTINUOUS
 62
     7
 10
-109.3433672200551
 20
-423.24900602370019
 30
0.0
  0
VERTEX
  5
DA7
  8
DATA
  6
CONTINUOUS
 62
     7
 10
-109.3433672200551
 20
-424.74900602370019
 30
0.0
  0
VERTEX
  5
DA8
  8
DATA
  6
CONTINUOUS
 62
     7
 10
-113.0433672200551
 20
-424.74900602370019
 30
0.0
  0
SEQEND
  5
DA9
  8
DATA
  6
CONTINUOUS
 62
     7
  0
POLYLINE
  5
62E
  8
DATA
  6
CONTINUOUS
 62
     7
 66
     1
 10
0.0
 20
0.0
 30
0.0
 70
     1
  0
VERTEX
  5
DAA
  8
DATA
  6
CONTINUOUS
 62
     7
 10
-108.0433672200551
 20
-423.24900602370019
 30
0.0
  0
VERTEX
  5
DAB
  8
DATA
  6
CONTINUOUS
 62
     7
 10
-104.3433672200551
 20
-423.24900602370019
 30
0.0
  0
VERTEX
  5
DAC
  8
DATA
  6
CONTINUOUS
 62
     7
 10
-104.3433672200551
 20
-424.74900602370019
 30
0.0
  0
VERTEX
  5
DAD
  8
DATA
  6
CONTINUOUS
 62
     7
 10
-108.0433672200551
 20
-424.74900602370019
 30
0.0
  0
SEQEND
  5
DAE
  8
DATA
  6
CONTINUOUS
 62
     7
  0
POLYLINE
  5
634
  8
DATA
  6
CONTINUOUS
 62
     7
 66
     1
 10
0.0
 20
0.0
 30
0.0
 70
     1
  0
VERTEX
  5
DAF
  8
DATA
  6
CONTINUOUS
 62
     7
 10
-103.0433672200551
 20
-423.24900602370019
 30
0.0
  0
VERTEX
  5
DB0
  8
DATA
  6
CONTINUOUS
 62
     7
 10
-99.343367220055129
 20
-423.24900602370019
 30
0.0
  0
VERTEX
  5
DB1
  8
DATA
  6
CONTINUOUS
 62
     7
 10
-99.343367220055129
 20
-424.74900602370019
 30
0.0
  0
VERTEX
  5
DB2
  8
DATA
  6
CONTINUOUS
 62
     7
 10
-103.0433672200551
 20
-424.74900602370019
 30
0.0
  0
SEQEND
  5
DB3
  8
DATA
  6
CONTINUOUS
 62
     7
  0
POLYLINE
  5
63A
  8
DATA
  6
CONTINUOUS
 62
     7
 66
     1
 10
0.0
 20
0.0
 30
0.0
 70
     1
  0
VERTEX
  5
DB4
  8
DATA
  6
CONTINUOUS
 62
     7
 10
-98.043367220055146
 20
-423.24900602370019
 30
0.0
  0
VERTEX
  5
DB5
  8
DATA
  6
CONTINUOUS
 62
     7
 10
-94.343367220055129
 20
-423.24900602370019
 30
0.0
  0
VERTEX
  5
DB6
  8
DATA
  6
CONTINUOUS
 62
     7
 10
-94.343367220055129
 20
-424.74900602370019
 30
0.0
  0
VERTEX
  5
DB7
  8
DATA
  6
CONTINUOUS
 62
     7
 10
-98.043367220055146
 20
-424.74900602370019
 30
0.0
  0
SEQEND
  5
DB8
  8
DATA
  6
CONTINUOUS
 62
     7
  0
POLYLINE
  5
640
  8
DATA
  6
CONTINUOUS
 62
     7
 66
     1
 10
0.0
 20
0.0
 30
0.0
 70
     1
  0
VERTEX
  5
DB9
  8
DATA
  6
CONTINUOUS
 62
     7
 10
-93.043367220055146
 20
-423.24900602370019
 30
0.0
  0
VERTEX
  5
DBA
  8
DATA
  6
CONTINUOUS
 62
     7
 10
-89.343367220055086
 20
-423.24900602370019
 30
0.0
  0
VERTEX
  5
DBB
  8
DATA
  6
CONTINUOUS
 62
     7
 10
-89.343367220055086
 20
-424.74900602370019
 30
0.0
  0
VERTEX
  5
DBC
  8
DATA
  6
CONTINUOUS
 62
     7
 10
-93.043367220055146
 20
-424.74900602370019
 30
0.0
  0
SEQEND
  5
DBD
  8
DATA
  6
CONTINUOUS
 62
     7
  0
POLYLINE
  5
646
  8
DATA
  6
CONTINUOUS
 62
     7
 66
     1
 10
0.0
 20
0.0
 30
0.0
 70
     1
  0
VERTEX
  5
DBE
  8
DATA
  6
CONTINUOUS
 62
     7
 10
-88.043367220055146
 20
-423.24900602370019
 30
0.0
  0
VERTEX
  5
DBF
  8
DATA
  6
CONTINUOUS
 62
     7
 10
-84.343367220055086
 20
-423.24900602370019
 30
0.0
  0
VERTEX
  5
DC0
  8
DATA
  6
CONTINUOUS
 62
     7
 10
-84.343367220055086
 20
-424.74900602370019
 30
0.0
  0
VERTEX
  5
DC1
  8
DATA
  6
CONTINUOUS
 62
     7
 10
-88.043367220055146
 20
-424.74900602370019
 30
0.0
  0
SEQEND
  5
DC2
  8
DATA
  6
CONTINUOUS
 62
     7
  0
POLYLINE
  5
64C
  8
DATA
  6
CONTINUOUS
 62
     7
 66
     1
 10
0.0
 20
0.0
 30
0.0
 70
     1
  0
VERTEX
  5
DC3
  8
DATA
  6
CONTINUOUS
 62
     7
 10
-83.043367220055146
 20
-423.24900602370019
 30
0.0
  0
VERTEX
  5
DC4
  8
DATA
  6
CONTINUOUS
 62
     7
 10
-79.3433672200551
 20
-423.24900602370019
 30
0.0
  0
VERTEX
  5
DC5
  8
DATA
  6
CONTINUOUS
 62
     7
 10
-79.3433672200551
 20
-424.74900602370019
 30
0.0
  0
VERTEX
  5
DC6
  8
DATA
  6
CONTINUOUS
 62
     7
 10
-83.043367220055146
 20
-424.74900602370019
 30
0.0
  0
SEQEND
  5
DC7
  8
DATA
  6
CONTINUOUS
 62
     7
  0
POLYLINE
  5
652
  8
DATA
  6
CONTINUOUS
 62
     7
 66
     1
 10
0.0
 20
0.0
 30
0.0
 70
     1
  0
VERTEX
  5
DC8
  8
DATA
  6
CONTINUOUS
 62
     7
 10
-78.043367220055146
 20
-423.24900602370019
 30
0.0
  0
VERTEX
  5
DC9
  8
DATA
  6
CONTINUOUS
 62
     7
 10
-74.3433672200551
 20
-423.24900602370019
 30
0.0
  0
VERTEX
  5
DCA
  8
DATA
  6
CONTINUOUS
 62
     7
 10
-74.3433672200551
 20
-424.74900602370019
 30
0.0
  0
VERTEX
  5
DCB
  8
DATA
  6
CONTINUOUS
 62
     7
 10
-78.043367220055146
 20
-424.74900602370019
 30
0.0
  0
SEQEND
  5
DCC
  8
DATA
  6
CONTINUOUS
 62
     7
  0
POLYLINE
  5
658
  8
DATA
  6
CONTINUOUS
 62
     7
 66
     1
 10
0.0
 20
0.0
 30
0.0
 70
     1
  0
VERTEX
  5
DCD
  8
DATA
  6
CONTINUOUS
 62
     7
 10
-73.043367220055146
 20
-423.24900602370019
 30
0.0
  0
VERTEX
  5
DCE
  8
DATA
  6
CONTINUOUS
 62
     7
 10
-69.343367220055114
 20
-423.24900602370019
 30
0.0
  0
VERTEX
  5
DCF
  8
DATA
  6
CONTINUOUS
 62
     7
 10
-69.343367220055114
 20
-424.74900602370019
 30
0.0
  0
VERTEX
  5
DD0
  8
DATA
  6
CONTINUOUS
 62
     7
 10
-73.043367220055146
 20
-424.74900602370019
 30
0.0
  0
SEQEND
  5
DD1
  8
DATA
  6
CONTINUOUS
 62
     7
  0
POLYLINE
  5
65E
  8
DATA
  6
CONTINUOUS
 62
     7
 66
     1
 10
0.0
 20
0.0
 30
0.0
 70
     1
  0
VERTEX
  5
DD2
  8
DATA
  6
CONTINUOUS
 62
     7
 10
-68.043367220055146
 20
-423.24900602370019
 30
0.0
  0
VERTEX
  5
DD3
  8
DATA
  6
CONTINUOUS
 62
     7
 10
-64.343367220055114
 20
-423.24900602370019
 30
0.0
  0
VERTEX
  5
DD4
  8
DATA
  6
CONTINUOUS
 62
     7
 10
-64.343367220055114
 20
-424.74900602370019
 30
0.0
  0
VERTEX
  5
DD5
  8
DATA
  6
CONTINUOUS
 62
     7
 10
-68.043367220055146
 20
-424.74900602370019
 30
0.0
  0
SEQEND
  5
DD6
  8
DATA
  6
CONTINUOUS
 62
     7
  0
POLYLINE
  5
664
  8
DATA
  6
CONTINUOUS
 62
     7
 66
     1
 10
0.0
 20
0.0
 30
0.0
 70
     1
  0
VERTEX
  5
DD7
  8
DATA
  6
CONTINUOUS
 62
     7
 10
-63.043367220055153
 20
-423.24900602370019
 30
0.0
  0
VERTEX
  5
DD8
  8
DATA
  6
CONTINUOUS
 62
     7
 10
-59.343367220055107
 20
-423.24900602370019
 30
0.0
  0
VERTEX
  5
DD9
  8
DATA
  6
CONTINUOUS
 62
     7
 10
-59.343367220055107
 20
-424.74900602370019
 30
0.0
  0
VERTEX
  5
DDA
  8
DATA
  6
CONTINUOUS
 62
     7
 10
-63.043367220055153
 20
-424.74900602370019
 30
0.0
  0
SEQEND
  5
DDB
  8
DATA
  6
CONTINUOUS
 62
     7
  0
POLYLINE
  5
66A
  8
DATA
  6
CONTINUOUS
 62
     7
 66
     1
 10
0.0
 20
0.0
 30
0.0
 70
     1
  0
VERTEX
  5
DDC
  8
DATA
  6
CONTINUOUS
 62
     7
 10
-58.043367220055153
 20
-423.24900602370019
 30
0.0
  0
VERTEX
  5
DDD
  8
DATA
  6
CONTINUOUS
 62
     7
 10
-54.343367220055107
 20
-423.24900602370019
 30
0.0
  0
VERTEX
  5
DDE
  8
DATA
  6
CONTINUOUS
 62
     7
 10
-54.343367220055107
 20
-424.74900602370019
 30
0.0
  0
VERTEX
  5
DDF
  8
DATA
  6
CONTINUOUS
 62
     7
 10
-58.043367220055153
 20
-424.74900602370019
 30
0.0
  0
SEQEND
  5
DE0
  8
DATA
  6
CONTINUOUS
 62
     7
  0
LINE
  5
670
  8
DATA
  6
CONTINUOUS
 62
     7
 10
-53.3433672200551
 20
-422.49900602370019
 30
0.0
 11
-53.3433672200551
 21
-425.49900602370019
 31
0.0
  0
LINE
  5
671
  8
DATA
  6
CONTINUOUS
 62
     7
 10
-53.3433672200551
 20
-422.49900602370019
 30
0.0
 11
-114.0412975735269
 21
-422.49900602370019
 31
0.0
  0
LINE
  5
672
  8
DATA
  6
CONTINUOUS
 62
     7
 10
-53.3433672200551
 20
-425.49900602370019
 30
0.0
 11
-114.0412975735269
 21
-425.49900602370019
 31
0.0
  0
LINE
  5
673
  8
DATA
  6
CONTINUOUS
 62
     7
 10
-114.0412975735269
 20
-425.49900602370019
 30
0.0
 11
-114.0412975735269
 21
-422.49900602370019
 31
0.0
  0
POLYLINE
  5
674
  8
DATA
  6
CONTINUOUS
 62
     7
 66
     1
 10
0.0
 20
0.0
 30
0.0
 70
     1
  0
VERTEX
  5
DE1
  8
DATA
  6
CONTINUOUS
 62
     7
 10
-48.043367220055153
 20
-423.24900602370019
 30
0.0
  0
VERTEX
  5
DE2
  8
DATA
  6
CONTINUOUS
 62
     7
 10
-44.343367220055107
 20
-423.24900602370019
 30
0.0
  0
VERTEX
  5
DE3
  8
DATA
  6
CONTINUOUS
 62
     7
 10
-44.343367220055107
 20
-424.74900602370019
 30
0.0
  0
VERTEX
  5
DE4
  8
DATA
  6
CONTINUOUS
 62
     7
 10
-48.043367220055153
 20
-424.74900602370019
 30
0.0
  0
SEQEND
  5
DE5
  8
DATA
  6
CONTINUOUS
 62
     7
  0
POLYLINE
  5
67A
  8
DATA
  6
CONTINUOUS
 62
     7
 66
     1
 10
0.0
 20
0.0
 30
0.0
 70
     1
  0
VERTEX
  5
DE6
  8
DATA
  6
CONTINUOUS
 62
     7
 10
-43.043367220055153
 20
-423.24900602370019
 30
0.0
  0
VERTEX
  5
DE7
  8
DATA
  6
CONTINUOUS
 62
     7
 10
-39.343367220055107
 20
-423.24900602370019
 30
0.0
  0
VERTEX
  5
DE8
  8
DATA
  6
CONTINUOUS
 62
     7
 10
-39.343367220055107
 20
-424.74900602370019
 30
0.0
  0
VERTEX
  5
DE9
  8
DATA
  6
CONTINUOUS
 62
     7
 10
-43.043367220055153
 20
-424.74900602370019
 30
0.0
  0
SEQEND
  5
DEA
  8
DATA
  6
CONTINUOUS
 62
     7
  0
POLYLINE
  5
680
  8
DATA
  6
CONTINUOUS
 62
     7
 66
     1
 10
0.0
 20
0.0
 30
0.0
 70
     1
  0
VERTEX
  5
DEB
  8
DATA
  6
CONTINUOUS
 62
     7
 10
-38.043367220055153
 20
-423.24900602370019
 30
0.0
  0
VERTEX
  5
DEC
  8
DATA
  6
CONTINUOUS
 62
     7
 10
-34.343367220055107
 20
-423.24900602370019
 30
0.0
  0
VERTEX
  5
DED
  8
DATA
  6
CONTINUOUS
 62
     7
 10
-34.343367220055107
 20
-424.74900602370019
 30
0.0
  0
VERTEX
  5
DEE
  8
DATA
  6
CONTINUOUS
 62
     7
 10
-38.043367220055153
 20
-424.74900602370019
 30
0.0
  0
SEQEND
  5
DEF
  8
DATA
  6
CONTINUOUS
 62
     7
  0
POLYLINE
  5
686
  8
DATA
  6
CONTINUOUS
 62
     7
 66
     1
 10
0.0
 20
0.0
 30
0.0
 70
     1
  0
VERTEX
  5
DF0
  8
DATA
  6
CONTINUOUS
 62
     7
 10
-33.04336722005516
 20
-423.24900602370019
 30
0.0
  0
VERTEX
  5
DF1
  8
DATA
  6
CONTINUOUS
 62
     7
 10
-29.343367220055111
 20
-423.24900602370019
 30
0.0
  0
VERTEX
  5
DF2
  8
DATA
  6
CONTINUOUS
 62
     7
 10
-29.343367220055111
 20
-424.74900602370019
 30
0.0
  0
VERTEX
  5
DF3
  8
DATA
  6
CONTINUOUS
 62
     7
 10
-33.04336722005516
 20
-424.74900602370019
 30
0.0
  0
SEQEND
  5
DF4
  8
DATA
  6
CONTINUOUS
 62
     7
  0
POLYLINE
  5
68C
  8
DATA
  6
CONTINUOUS
 62
     7
 66
     1
 10
0.0
 20
0.0
 30
0.0
 70
     1
  0
VERTEX
  5
DF5
  8
DATA
  6
CONTINUOUS
 62
     7
 10
-28.04336722005516
 20
-423.24900602370019
 30
0.0
  0
VERTEX
  5
DF6
  8
DATA
  6
CONTINUOUS
 62
     7
 10
-24.343367220055111
 20
-423.24900602370019
 30
0.0
  0
VERTEX
  5
DF7
  8
DATA
  6
CONTINUOUS
 62
     7
 10
-24.343367220055111
 20
-424.74900602370019
 30
0.0
  0
VERTEX
  5
DF8
  8
DATA
  6
CONTINUOUS
 62
     7
 10
-28.04336722005516
 20
-424.74900602370019
 30
0.0
  0
SEQEND
  5
DF9
  8
DATA
  6
CONTINUOUS
 62
     7
  0
POLYLINE
  5
692
  8
DATA
  6
CONTINUOUS
 62
     7
 66
     1
 10
0.0
 20
0.0
 30
0.0
 70
     1
  0
VERTEX
  5
DFA
  8
DATA
  6
CONTINUOUS
 62
     7
 10
-23.04336722005516
 20
-423.24900602370019
 30
0.0
  0
VERTEX
  5
DFB
  8
DATA
  6
CONTINUOUS
 62
     7
 10
-19.343367220055111
 20
-423.24900602370019
 30
0.0
  0
VERTEX
  5
DFC
  8
DATA
  6
CONTINUOUS
 62
     7
 10
-19.343367220055111
 20
-424.74900602370019
 30
0.0
  0
VERTEX
  5
DFD
  8
DATA
  6
CONTINUOUS
 62
     7
 10
-23.04336722005516
 20
-424.74900602370019
 30
0.0
  0
SEQEND
  5
DFE
  8
DATA
  6
CONTINUOUS
 62
     7
  0
POLYLINE
  5
698
  8
DATA
  6
CONTINUOUS
 62
     7
 66
     1
 10
0.0
 20
0.0
 30
0.0
 70
     1
  0
VERTEX
  5
DFF
  8
DATA
  6
CONTINUOUS
 62
     7
 10
-18.04336722005516
 20
-423.24900602370019
 30
0.0
  0
VERTEX
  5
E00
  8
DATA
  6
CONTINUOUS
 62
     7
 10
-14.343367220055111
 20
-423.24900602370019
 30
0.0
  0
VERTEX
  5
E01
  8
DATA
  6
CONTINUOUS
 62
     7
 10
-14.343367220055111
 20
-424.74900602370019
 30
0.0
  0
VERTEX
  5
E02
  8
DATA
  6
CONTINUOUS
 62
     7
 10
-18.04336722005516
 20
-424.74900602370019
 30
0.0
  0
SEQEND
  5
E03
  8
DATA
  6
CONTINUOUS
 62
     7
  0
POLYLINE
  5
69E
  8
DATA
  6
CONTINUOUS
 62
     7
 66
     1
 10
0.0
 20
0.0
 30
0.0
 70
     1
  0
VERTEX
  5
E04
  8
DATA
  6
CONTINUOUS
 62
     7
 10
-13.04336722005516
 20
-423.24900602370019
 30
0.0
  0
VERTEX
  5
E05
  8
DATA
  6
CONTINUOUS
 62
     7
 10
-9.3433672200551143
 20
-423.24900602370019
 30
0.0
  0
VERTEX
  5
E06
  8
DATA
  6
CONTINUOUS
 62
     7
 10
-9.3433672200551143
 20
-424.74900602370019
 30
0.0
  0
VERTEX
  5
E07
  8
DATA
  6
CONTINUOUS
 62
     7
 10
-13.04336722005516
 20
-424.74900602370019
 30
0.0
  0
SEQEND
  5
E08
  8
DATA
  6
CONTINUOUS
 62
     7
  0
POLYLINE
  5
6A4
  8
DATA
  6
CONTINUOUS
 62
     7
 66
     1
 10
0.0
 20
0.0
 30
0.0
 70
     1
  0
VERTEX
  5
E09
  8
DATA
  6
CONTINUOUS
 62
     7
 10
-8.043367220055158
 20
-423.24900602370019
 30
0.0
  0
VERTEX
  5
E0A
  8
DATA
  6
CONTINUOUS
 62
     7
 10
-4.3433672200551134
 20
-423.24900602370019
 30
0.0
  0
VERTEX
  5
E0B
  8
DATA
  6
CONTINUOUS
 62
     7
 10
-4.3433672200551134
 20
-424.74900602370019
 30
0.0
  0
VERTEX
  5
E0C
  8
DATA
  6
CONTINUOUS
 62
     7
 10
-8.043367220055158
 20
-424.74900602370019
 30
0.0
  0
SEQEND
  5
E0D
  8
DATA
  6
CONTINUOUS
 62
     7
  0
POLYLINE
  5
6AA
  8
DATA
  6
CONTINUOUS
 62
     7
 66
     1
 10
0.0
 20
0.0
 30
0.0
 70
     1
  0
VERTEX
  5
E0E
  8
DATA
  6
CONTINUOUS
 62
     7
 10
-3.0433672200551589
 20
-423.24900602370019
 30
0.0
  0
VERTEX
  5
E0F
  8
DATA
  6
CONTINUOUS
 62
     7
 10
0.6566327799448857
 20
-423.24900602370019
 30
0.0
  0
VERTEX
  5
E10
  8
DATA
  6
CONTINUOUS
 62
     7
 10
0.6566327799448857
 20
-424.74900602370019
 30
0.0
  0
VERTEX
  5
E11
  8
DATA
  6
CONTINUOUS
 62
     7
 10
-3.0433672200551589
 20
-424.74900602370019
 30
0.0
  0
SEQEND
  5
E12
  8
DATA
  6
CONTINUOUS
 62
     7
  0
POLYLINE
  5
6B0
  8
DATA
  6
CONTINUOUS
 62
     7
 66
     1
 10
0.0
 20
0.0
 30
0.0
 70
     1
  0
VERTEX
  5
E13
  8
DATA
  6
CONTINUOUS
 62
     7
 10
1.95663277994484
 20
-423.24900602370019
 30
0.0
  0
VERTEX
  5
E14
  8
DATA
  6
CONTINUOUS
 62
     7
 10
5.6566327799448848
 20
-423.24900602370019
 30
0.0
  0
VERTEX
  5
E15
  8
DATA
  6
CONTINUOUS
 62
     7
 10
5.6566327799448848
 20
-424.74900602370019
 30
0.0
  0
VERTEX
  5
E16
  8
DATA
  6
CONTINUOUS
 62
     7
 10
1.95663277994484
 20
-424.74900602370019
 30
0.0
  0
SEQEND
  5
E17
  8
DATA
  6
CONTINUOUS
 62
     7
  0
POLYLINE
  5
6B6
  8
DATA
  6
CONTINUOUS
 62
     7
 66
     1
 10
0.0
 20
0.0
 30
0.0
 70
     1
  0
VERTEX
  5
E18
  8
DATA
  6
CONTINUOUS
 62
     7
 10
6.9566327799448402
 20
-423.24900602370019
 30
0.0
  0
VERTEX
  5
E19
  8
DATA
  6
CONTINUOUS
 62
     7
 10
10.656632779944889
 20
-423.24900602370019
 30
0.0
  0
VERTEX
  5
E1A
  8
DATA
  6
CONTINUOUS
 62
     7
 10
10.656632779944889
 20
-424.74900602370019
 30
0.0
  0
VERTEX
  5
E1B
  8
DATA
  6
CONTINUOUS
 62
     7
 10
6.9566327799448402
 20
-424.74900602370019
 30
0.0
  0
SEQEND
  5
E1C
  8
DATA
  6
CONTINUOUS
 62
     7
  0
LINE
  5
6BC
  8
DATA
  6
CONTINUOUS
 62
     7
 10
11.656632779944911
 20
-422.49900602370019
 30
0.0
 11
11.656632779944911
 21
-425.49900602370019
 31
0.0
  0
LINE
  5
6BD
  8
DATA
  6
CONTINUOUS
 62
     7
 10
11.656632779944911
 20
-422.49900602370019
 30
0.0
 11
-49.04129757352689
 21
-422.49900602370019
 31
0.0
  0
LINE
  5
6BE
  8
DATA
  6
CONTINUOUS
 62
     7
 10
11.656632779944911
 20
-425.49900602370019
 30
0.0
 11
-49.04129757352689
 21
-425.49900602370019
 31
0.0
  0
LINE
  5
6BF
  8
DATA
  6
CONTINUOUS
 62
     7
 10
-49.04129757352689
 20
-425.49900602370019
 30
0.0
 11
-49.04129757352689
 21
-422.49900602370019
 31
0.0
  0
LINE
  5
6C0
  8
DATA
  6
CONTINUOUS
 62
     7
 10
-229.5962975735269
 20
-408.19999999999999
 30
0.0
 11
-229.5962975735269
 21
-426.89900602370011
 31
0.0
  0
LINE
  5
6C1
  8
DATA
  6
CONTINUOUS
 62
     7
 10
-214.48629757352691
 20
-408.0990060237001
 30
0.0
 11
-214.48629757352691
 21
-426.89900602370011
 31
0.0
  0
LINE
  5
6C2
  8
DATA
  6
CONTINUOUS
 62
     7
 10
-182.0962975735269
 20
-408.0990060237001
 30
0.0
 11
-182.0962975735269
 21
-426.89900602370011
 31
0.0
  0
LINE
  5
6C3
  8
DATA
  6
CONTINUOUS
 62
     7
 10
-150.5962975735269
 20
-408.0990060237001
 30
0.0
 11
-150.5962975735269
 21
-426.89900602370011
 31
0.0
  0
LINE
  5
6C4
  8
DATA
  6
CONTINUOUS
 62
     7
 10
-118.0412975735278
 20
-408.0990060237001
 30
0.0
 11
-118.0412975735278
 21
-426.89900602370011
 31
0.0
  0
TEXT
  5
6C5
  8
DATA
 62
     7
 10
-293.08287576703452
 20
-413.24256029192878
 30
0.0
 40
3.84765625
  1
CHANNEL ONE
 41
0.8
 11
-293.08287576703452
 21
-409.39490404192873
 31
0.0
 73
     3
  0
TEXT
  5
6C6
  8
DATA
 62
     7
 10
-293.08287576703452
 20
-426.24256029192878
 30
0.0
 40
3.84765625
  1
CHANNEL TWO
 41
0.8
 11
-293.08287576703452
 21
-422.39490404192873
 31
0.0
 73
     3
  0
TEXT
  5
6C7
  8
DATA
 62
     7
 10
-261.4696175630786
 20
-418.41961756307859
 30
0.0
 40
1.923828125
  1
-10
 41
0.8
 11
-261.4696175630786
 21
-416.49578943807848
 31
0.0
 73
     3
  0
TEXT
  5
6C8
  8
DATA
 62
     7
 10
-255.3101274789737
 20
-418.345573655382
 30
0.0
 40
1.923828125
  1
0
 41
0.8
 11
-255.3101274789737
 21
-416.421745530382
 31
0.0
 73
     3
  0
TEXT
  5
6C9
  8
DATA
 62
     7
 10
-251.5
 20
-418.43038243692109
 30
0.0
 40
1.923828125
  1
+10
 41
0.8
 11
-251.5
 21
-416.50655431192121
 31
0.0
 73
     3
  0
TEXT
  5
6CA
  8
DATA
 62
     7
 10
-246.08480878153929
 20
-418.47938846062141
 30
0.0
 40
1.923828125
  1
+18
 41
0.8
 11
-246.08480878153929
 21
-416.55556033562152
 31
0.0
 73
     3
  0
TEXT
  5
6CB
  8
DATA
 62
     7
 10
-239.16012754851249
 20
-418.56961756307862
 30
0.0
 40
1.923828125
  1
CLIP
 41
0.8
 11
-239.16012754851249
 21
-416.64578943807862
 31
0.0
 73
     3
  0
TEXT
  5
6CC
  8
DATA
 62
     7
 10
-224.87312527276191
 20
-418.4398725210263
 30
0.0
 40
1.923828125
  1
CLEAR
 41
0.8
 11
-224.87312527276191
 21
-416.5160443960263
 31
0.0
 73
     3
  0
TEXT
  5
6CD
  8
DATA
 62
     7
 10
-201.0550035136653
 20
-414.34753693521589
 30
0.0
 40
1.7314453125
  1
SPEECH    (off)
 41
0.8
 11
-201.0550035136653
 21
-412.616091622716
 31
0.0
 73
     3
  0
TEXT
  5
6CE
  8
DATA
 62
     7
 10
-201.0550035136653
 20
-416.59753693521589
 30
0.0
 40
1.7314453125
  1
MUSIC LOW (G)
 41
0.8
 11
-201.0550035136653
 21
-414.866091622716
 31
0.0
 73
     3
  0
TEXT
  5
6CF
  8
DATA
 62
     7
 10
-201.0550035136653
 20
-418.84753693521589
 30
0.0
 40
1.7314453125
  1
MUSIC MED (Y)
 41
0.8
 11
-201.0550035136653
 21
-417.116091622716
 31
0.0
 73
     3
  0
TEXT
  5
6D0
  8
DATA
 62
     7
 10
-201.0550035136653
 20
-421.09753693521589
 30
0.0
 40
1.7314453125
  1
MUSIC HIGH(R)
 41
0.8
 11
-201.0550035136653
 21
-419.366091622716
 31
0.0
 73
     3
  0
TEXT
  5
6D1
  8
DATA
 62
     7
 10
-166.4246719125664
 20
-414.9734934382513
 30
0.0
 40
1.7314453125
  1
NONE   (off)
 41
0.8
 11
-166.4246719125664
 21
-413.2420481257513
 31
0.0
 73
     3
  0
TEXT
  5
6D2
  8
DATA
 62
     7
 10
-166.4246719125664
 20
-417.22349343825141
 30
0.0
 40
1.7314453125
  1
1 MIN. (G)
 41
0.8
 11
-166.4246719125664
 21
-415.4920481257513
 31
0.0
 73
     3
  0
TEXT
  5
6D3
  8
DATA
 62
     7
 10
-166.4246719125664
 20
-419.4734934382513
 30
0.0
 40
1.7314453125
  1
10 MIN.(Y)
 41
0.8
 11
-166.4246719125664
 21
-417.7420481257513
 31
0.0
 73
     3
  0
TEXT
  5
6D4
  8
DATA
 62
     7
 10
-166.4246719125664
 20
-421.7234934382513
 30
0.0
 40
1.7314453125
  1
60 MIN.(R)
 41
0.8
 11
-166.4246719125664
 21
-419.9920481257513
 31
0.0
 73
     3
  0
TEXT
  5
6D5
  8
DATA
 62
     7
 10
-130.65017321966911
 20
-416.83317662916568
 30
0.0
 40
1.7314453125
  1
FIXED (G)
 41
0.8
 11
-130.65017321966911
 21
-415.10173131666562
 31
0.0
 73
     3
  0
TEXT
  5
6D6
  8
DATA
 62
     7
 10
-130.65017321966911
 20
-419.08317662916562
 30
0.0
 40
1.7314453125
  1
LIVE  (R)
 41
0.8
 11
-130.65017321966911
 21
-417.35173131666562
 31
0.0
 73
     3
  0
LINE
  5
6D7
  8
DATA
  6
CONTINUOUS
 62
     7
 10
-118.0412975735278
 20
-408.0990060237001
 30
0.0
 11
-118.0412975735278
 21
-430.39999999999998
 31
0.0
  0
TEXT
  5
6D8
  8
DATA
 62
     7
 10
-111.8490322257758
 20
-418.4606193143909
 30
0.0
 40
1.923828125
  1
1
 41
0.8
 11
-111.8490322257758
 21
-416.53679118939078
 31
0.0
 73
     3
  0
TEXT
  5
6D9
  8
DATA
 62
     7
 10
-106.8490322257758
 20
-418.4606193143909
 30
0.0
 40
1.923828125
  1
2
 41
0.8
 11
-106.8490322257758
 21
-416.53679118939078
 31
0.0
 73
     3
  0
TEXT
  5
6DA
  8
DATA
 62
     7
 10
-101.8490322257758
 20
-418.4606193143909
 30
0.0
 40
1.923828125
  1
3
 41
0.8
 11
-101.8490322257758
 21
-416.53679118939078
 31
0.0
 73
     3
  0
TEXT
  5
6DB
  8
DATA
 62
     7
 10
-96.849032225775858
 20
-418.4606193143909
 30
0.0
 40
1.923828125
  1
4
 41
0.8
 11
-96.849032225775858
 21
-416.53679118939078
 31
0.0
 73
     3
  0
TEXT
  5
6DC
  8
DATA
 62
     7
 10
-91.849032225775858
 20
-418.4606193143909
 30
0.0
 40
1.923828125
  1
5
 41
0.8
 11
-91.849032225775858
 21
-416.53679118939078
 31
0.0
 73
     3
  0
TEXT
  5
6DD
  8
DATA
 62
     7
 10
-86.849032225775858
 20
-418.4606193143909
 30
0.0
 40
1.923828125
  1
6
 41
0.8
 11
-86.849032225775858
 21
-416.53679118939078
 31
0.0
 73
     3
  0
TEXT
  5
6DE
  8
DATA
 62
     7
 10
-81.849032225775844
 20
-418.4606193143909
 30
0.0
 40
1.923828125
  1
7
 41
0.8
 11
-81.849032225775844
 21
-416.53679118939078
 31
0.0
 73
     3
  0
TEXT
  5
6DF
  8
DATA
 62
     7
 10
-76.849032225775844
 20
-418.4606193143909
 30
0.0
 40
1.923828125
  1
8
 41
0.8
 11
-76.849032225775844
 21
-416.53679118939078
 31
0.0
 73
     3
  0
TEXT
  5
6E0
  8
DATA
 62
     7
 10
-71.849032225775829
 20
-418.4606193143909
 30
0.0
 40
1.923828125
  1
9
 41
0.8
 11
-71.849032225775829
 21
-416.53679118939078
 31
0.0
 73
     3
  0
TEXT
  5
6E1
  8
DATA
 62
     7
 10
-66.849032225775829
 20
-418.4606193143909
 30
0.0
 40
1.923828125
  1
10
 41
0.8
 11
-66.849032225775829
 21
-416.53679118939078
 31
0.0
 73
     3
  0
TEXT
  5
6E2
  8
DATA
 62
     7
 10
-61.849032225775822
 20
-418.4606193143909
 30
0.0
 40
1.923828125
  1
11
 41
0.8
 11
-61.849032225775822
 21
-416.53679118939078
 31
0.0
 73
     3
  0
TEXT
  5
6E3
  8
DATA
 62
     7
 10
-56.849032225775822
 20
-418.4606193143909
 30
0.0
 40
1.923828125
  1
12
 41
0.8
 11
-56.849032225775822
 21
-416.53679118939078
 31
0.0
 73
     3
  0
TEXT
  5
6E4
  8
DATA
 62
     7
 10
-47.298064451551618
 20
-418.34951611288778
 30
0.0
 40
1.923828125
  1
13
 41
0.8
 11
-47.298064451551618
 21
-416.4256879878879
 31
0.0
 73
     3
  0
TEXT
  5
6E5
  8
DATA
 62
     7
 10
-42.397096677327447
 20
-418.34951611288778
 30
0.0
 40
1.923828125
  1
14
 41
0.8
 11
-42.397096677327447
 21
-416.4256879878879
 31
0.0
 73
     3
  0
TEXT
  5
6E6
  8
DATA
 62
     7
 10
-37.446612790215362
 20
-418.34951611288778
 30
0.0
 40
1.923828125
  1
15
 41
0.8
 11
-37.446612790215362
 21
-416.4256879878879
 31
0.0
 73
     3
  0
TEXT
  5
6E7
  8
DATA
 62
     7
 10
-32.644677241766999
 20
-418.34951611288778
 30
0.0
 40
1.923828125
  1
16
 41
0.8
 11
-32.644677241766999
 21
-416.4256879878879
 31
0.0
 73
     3
  0
TEXT
  5
6E8
  8
DATA
 62
     7
 10
-27.446612790215401
 20
-418.34951611288778
 30
0.0
 40
1.923828125
  1
17
 41
0.8
 11
-27.446612790215401
 21
-416.4256879878879
 31
0.0
 73
     3
  0
TEXT
  5
6E9
  8
DATA
 62
     7
 10
-22.446612790215401
 20
-418.34951611288778
 30
0.0
 40
1.923828125
  1
18
 41
0.8
 11
-22.446612790215401
 21
-416.4256879878879
 31
0.0
 73
     3
  0
TEXT
  5
6EA
  8
DATA
 62
     7
 10
-17.694193354654949
 20
-418.34951611288778
 30
0.0
 40
1.923828125
  1
19
 41
0.8
 11
-17.694193354654949
 21
-416.4256879878879
 31
0.0
 73
     3
  0
TEXT
  5
6EB
  8
DATA
 62
     7
 10
-12.298064451551671
 20
-418.34951611288778
 30
0.0
 40
1.923828125
  1
20
 41
0.8
 11
-12.298064451551671
 21
-416.4256879878879
 31
0.0
 73
     3
  0
TEXT
  5
6EC
  8
DATA
 62
     7
 10
-7.000967774224196
 20
-418.34951611288778
 30
0.0
 40
1.923828125
  1
21
 41
0.8
 11
-7.000967774224196
 21
-416.4256879878879
 31
0.0
 73
     3
  0
TEXT
  5
6ED
  8
DATA
 62
     7
 10
-2.100000000000017
 20
-418.34951611288778
 30
0.0
 40
1.923828125
  1
22
 41
0.8
 11
-2.100000000000017
 21
-416.4256879878879
 31
0.0
 73
     3
  0
TEXT
  5
6EE
  8
DATA
 62
     7
 10
2.8009677742241621
 20
-418.34951611288778
 30
0.0
 40
1.923828125
  1
23
 41
0.8
 11
2.8009677742241621
 21
-416.4256879878879
 31
0.0
 73
     3
  0
TEXT
  5
6EF
  8
DATA
 62
     7
 10
7.7514516613362492
 20
-418.34951611288778
 30
0.0
 40
1.923828125
  1
24
 41
0.8
 11
7.7514516613362492
 21
-416.4256879878879
 31
0.0
 73
     3
  0
TEXT
  5
6F0
  8
DATA
 62
     7
 10
-258.67892736161548
 20
-406.67870179949
 30
0.0
 40
1.923828125
  1
INPUT LEVEL dBu
 41
0.8
 11
-258.67892736161548
 21
-404.75487367449
 31
0.0
 73
     3
  0
TEXT
  5
6F1
  8
DATA
 62
     7
 10
-225.53380230709371
 20
-406.93676046141883
 30
0.0
 40
1.923828125
  1
BYPASS
 41
0.8
 11
-225.53380230709371
 21
-405.01293233641871
 31
0.0
 73
     3
  0
TEXT
  5
6F2
  8
DATA
 62
     7
 10
-174.62718253780301
 20
-406.88794080975418
 30
0.0
 40
1.923828125
  1
LEVE FILTER LIFT
 41
0.8
 11
-174.62718253780301
 21
-404.96411268475418
 31
0.0
 73
     3
  0
TEXT
  5
6F3
  8
DATA
 62
     7
 10
-201.10732322993121
 20
-406.9095779236153
 30
0.0
 40
1.923828125
  1
TYPE
 41
0.8
 11
-201.10732322993121
 21
-404.9857497986153
 31
0.0
 73
     3
  0
TEXT
  5
6F4
  8
DATA
 62
     7
 10
-138.7529582238638
 20
-406.6783628861387
 30
0.0
 40
1.923828125
  1
MODE
 41
0.8
 11
-138.7529582238638
 21
-404.75453476113881
 31
0.0
 73
     3
  0
TEXT
  5
6F5
  8
DATA
 62
     7
 10
-54.90802669057188
 20
-406.8566197692906
 30
0.0
 40
1.923828125
  1
FILTERS
 41
0.8
 11
-54.90802669057188
 21
-404.9327916442906
 31
0.0
 73
     3
  0
LINE
  5
6F6
  8
DATA
  6
CONTINUOUS
 62
     7
 10
15.800000000000001
 20
-405.9916024247201
 30
0.0
 11
-44.0
 21
-405.9916024247201
 31
0.0
  0
LINE
  5
6F7
  8
DATA
  6
CONTINUOUS
 62
     7
 10
-58.0
 20
-405.9916024247201
 30
0.0
 11
-116.2
 21
-405.9916024247201
 31
0.0
  0
LINE
  5
6F8
  8
DATA
  6
CONTINUOUS
 62
     7
 10
-119.59999999999999
 20
-405.9916024247201
 30
0.0
 11
-132.19999999999999
 21
-405.9916024247201
 31
0.0
  0
LINE
  5
6F9
  8
DATA
  6
CONTINUOUS
 62
     7
 10
-140.19999999999999
 20
-405.9916024247201
 30
0.0
 11
-149.40000000000001
 21
-405.9916024247201
 31
0.0
  0
LINE
  5
6FA
  8
DATA
  6
CONTINUOUS
 62
     7
 10
-151.59999999999999
 20
-405.9916024247201
 30
0.0
 11
-154.0
 21
-405.9916024247201
 31
0.0
  0
LINE
  5
6FB
  8
DATA
  6
CONTINUOUS
 62
     7
 10
-180.80000000000001
 20
-405.9916024247201
 30
0.0
 11
-177.19999999999999
 21
-405.9916024247201
 31
0.0
  0
LINE
  5
6FC
  8
DATA
  6
CONTINUOUS
 62
     7
 10
-183.40000000000001
 20
-405.9916024247201
 30
0.0
 11
-195.0
 21
-405.9916024247201
 31
0.0
  0
LINE
  5
6FD
  8
DATA
  6
CONTINUOUS
 62
     7
 10
-202.40000000000001
 20
-405.9916024247201
 30
0.0
 11
-213.59999999999999
 21
-405.9916024247201
 31
0.0
  0
LINE
  5
6FE
  8
DATA
  6
CONTINUOUS
 62
     7
 10
-215.19999999999999
 20
-405.9916024247201
 30
0.0
 11
-217.0
 21
-405.9916024247201
 31
0.0
  0
LINE
  5
6FF
  8
DATA
  6
CONTINUOUS
 62
     7
 10
-226.40000000000001
 20
-405.9916024247201
 30
0.0
 11
-228.0
 21
-405.9916024247201
 31
0.0
  0
LINE
  5
700
  8
DATA
  6
CONTINUOUS
 62
     7
 10
-230.40000000000001
 20
-405.9916024247201
 30
0.0
 11
-239.19999999999999
 21
-405.9916024247201
 31
0.0
  0
LINE
  5
701
  8
DATA
  6
CONTINUOUS
 62
     7
 10
-259.80000000000001
 20
-405.9916024247201
 30
0.0
 11
-269.0
 21
-405.9916024247201
 31
0.0
  0
TEXT
  5
702
  8
DATA
 62
     7
 10
-223.6165972581139
 20
13.23813355771817
 30
0.0
 40
2.693359375
  1
  OUTPUTS
 50
180.0
 41
0.8
 11
-223.6165972581139
 21
10.54477418271817
 31
0.0
 73
     3
  0
TEXT
  5
703
  8
DATA
 62
     7
 10
-280.02329146814827
 20
13.494904947113641
 30
0.0
 40
2.693359375
  1
 INPUTS
 50
180.0
 41
0.8
 11
-280.02329146814827
 21
10.801545572113641
 31
0.0
 73
     3
  0
CIRCLE
  5
704
  8
DATA
  6
CONTINUOUS
 62
     7
 10
-287.10835257678917
 20
30.002609754472729
 30
0.0
 40
8.5999999999999641
  0
POLYLINE
  5
705
  8
DATA
  6
CONTINUOUS
 62
     7
 66
     1
 10
0.0
 20
0.0
 30
0.0
 70
     1
  0
VERTEX
  5
E1D
  8
DATA
  6
CONTINUOUS
 62
     7
 10
-282.84870428687242
 20
37.380537014982551
 30
0.0
  0
VERTEX
  5
E1E
  8
DATA
  6
CONTINUOUS
 62
     7
 10
-291.3680008667061
 20
37.380537014982551
 30
0.0
  0
VERTEX
  5
E1F
  8
DATA
  6
CONTINUOUS
 62
     7
 10
-295.62764915662279
 20
30.002609754472729
 30
0.0
  0
VERTEX
  5
E20
  8
DATA
  6
CONTINUOUS
 62
     7
 10
-291.36800086670598
 20
22.624682493962901
 30
0.0
  0
VERTEX
  5
E21
  8
DATA
  6
CONTINUOUS
 62
     7
 10
-282.84870428687242
 20
22.624682493962901
 30
0.0
  0
VERTEX
  5
E22
  8
DATA
  6
CONTINUOUS
 62
     7
 10
-278.58905599695549
 20
30.002609754472729
 30
0.0
  0
SEQEND
  5
E23
  8
DATA
  6
CONTINUOUS
 62
     7
  0
CIRCLE
  5
70D
  8
DATA
  6
CONTINUOUS
 62
     7
 10
-287.10835257678917
 20
30.002609754472729
 30
0.0
 40
6.1999999999999309
  0
CIRCLE
  5
70E
  8
DATA
  6
CONTINUOUS
 62
     7
 10
-287.10835257678917
 20
30.002609754472729
 30
0.0
 40
3.099999999999965
  0
CIRCLE
  5
70F
  8
DATA
  6
CONTINUOUS
 62
     7
 10
-287.10835257678917
 20
30.002609754472729
 30
0.0
 40
4.4999999999999432
  0
TEXT
  5
710
  8
DATA
 62
     7
 10
-47.697937397307129
 20
13.746932811303649
 30
0.0
 40
2.3075249565972218
  1
%%uPHONE:     
 50
180.0
 41
0.8
 11
-47.697937397307129
 21
11.43940785470642
 31
0.0
 73
     3
  0
TEXT
  5
711
  8
DATA
 62
     7
 10
-47.697937397307129
 20
16.745543922414761
 30
0.0
 40
2.3075249565972218
  1
%%uTIP    +     
 50
180.0
 41
0.8
 11
-47.697937397307129
 21
14.43801896581753
 31
0.0
 73
     3
  0
TEXT
  5
712
  8
DATA
 62
     7
 10
-47.697937397307129
 20
19.74415503352586
 30
0.0
 40
2.3075249565972218
  1
%%uRING   -     
 50
180.0
 41
0.8
 11
-47.697937397307129
 21
17.43663007692864
 31
0.0
 73
     3
  0
TEXT
  5
713
  8
DATA
 62
     7
 10
-47.697937397307129
 20
22.742766144636981
 30
0.0
 40
2.3075249565972218
  1
%%uSLEEVE
 50
180.0
 41
0.8
 11
-47.697937397307129
 21
20.435241188039761
 31
0.0
 73
     3
  0
TEXT
  5
714
  8
DATA
 62
     7
 10
-47.697937397307129
 20
28.739988366859201
 30
0.0
 40
2.3075249565972218
  1
%%uXLR:
 50
180.0
 41
0.8
 11
-47.697937397307129
 21
26.43246341026197
 31
0.0
 73
     3
  0
TEXT
  5
715
  8
DATA
 62
     7
 10
-47.697937397307129
 20
31.738599477970322
 30
0.0
 40
2.3075249565972218
  1
%%uPIN 1   
 50
180.0
 41
0.8
 11
-47.697937397307129
 21
29.431074521373091
 31
0.0
 73
     3
  0
TEXT
  5
716
  8
DATA
 62
     7
 10
-47.697937397307129
 20
34.737210589081421
 30
0.0
 40
2.3075249565972218
  1
%%uPIN 2  +
 50
180.0
 41
0.8
 11
-47.697937397307129
 21
32.429685632484201
 31
0.0
 73
     3
  0
TEXT
  5
717
  8
DATA
 62
     7
 10
-47.697937397307129
 20
37.735821700192531
 30
0.0
 40
2.3075249565972218
  1
%%uPIN 3  -
 50
180.0
 41
0.8
 11
-47.697937397307129
 21
35.428296743595311
 31
0.0
 73
     3
  0
LINE
  5
718
  8
DATA
  6
CONTINUOUS
 62
     7
 10
-57.283291319257721
 20
28.015100800895372
 30
0.0
 11
-59.783291319257792
 21
28.015100800895372
 31
0.0
  0
LINE
  5
719
  8
DATA
  6
CONTINUOUS
 62
     7
 10
-58.533291319257792
 20
28.015100800895372
 30
0.0
 11
-58.095551188530862
 21
28.773288947826209
 31
0.0
  0
LINE
  5
71A
  8
DATA
  6
CONTINUOUS
 62
     7
 10
-57.653291319257718
 20
28.015100800895372
 30
0.0
 11
-57.215551188530817
 21
28.773288947826209
 31
0.0
  0
LINE
  5
71B
  8
DATA
  6
CONTINUOUS
 62
     7
 10
-59.373291319257753
 20
28.015100800895372
 30
0.0
 11
-58.935551188530837
 21
28.773288947826209
 31
0.0
  0
LINE
  5
71C
  8
DATA
  6
CONTINUOUS
 62
     7
 10
-58.533291319257792
 20
28.015100800895372
 30
0.0
 11
-58.533291319257721
 21
27.48169009859792
 31
0.0
  0
LINE
  5
71D
  8
DATA
  6
CONTINUOUS
 62
     7
 10
-57.804934088229459
 20
21.708943321870152
 30
0.0
 11
-60.304934088229523
 21
21.708943321870152
 31
0.0
  0
LINE
  5
71E
  8
DATA
  6
CONTINUOUS
 62
     7
 10
-59.054934088229459
 20
21.708943321870152
 30
0.0
 11
-58.617193957502529
 21
22.467131468800972
 31
0.0
  0
LINE
  5
71F
  8
DATA
  6
CONTINUOUS
 62
     7
 10
-58.174934088229399
 20
21.708943321870152
 30
0.0
 11
-57.737193957502477
 21
22.467131468800972
 31
0.0
  0
LINE
  5
720
  8
DATA
  6
CONTINUOUS
 62
     7
 10
-59.894934088229427
 20
21.708943321870152
 30
0.0
 11
-59.457193957502568
 21
22.467131468800972
 31
0.0
  0
LINE
  5
721
  8
DATA
  6
CONTINUOUS
 62
     7
 10
-59.054934088229459
 20
21.708943321870152
 30
0.0
 11
-59.054934088229459
 21
21.175532619572671
 31
0.0
  0
CIRCLE
  5
722
  8
DATA
  6
CONTINUOUS
 62
     7
 10
-208.02166696264129
 20
26.12035276420961
 30
0.0
 40
11.0
  0
CIRCLE
  5
723
  8
DATA
  6
CONTINUOUS
 62
     7
 10
-208.02157555368339
 20
26.055196886594661
 30
0.0
 40
8.2499999999999876
  0
CIRCLE
  5
724
  8
DATA
  6
CONTINUOUS
 62
     7
 10
-204.02570876408009
 20
26.33752591668641
 30
0.0
 40
1.175000000000008
  0
CIRCLE
  5
725
  8
DATA
  6
CONTINUOUS
 62
     7
 10
-212.02188045354001
 20
26.320352764209609
 30
0.0
 40
1.1750000000000109
  0
CIRCLE
  5
726
  8
DATA
  6
CONTINUOUS
 62
     7
 10
-208.021717840685
 20
30.004115222550752
 30
0.0
 40
1.1750000000000109
  0
CIRCLE
  5
727
  8
DATA
  6
CONTINUOUS
 62
     7
 10
-217.95084920747621
 20
35.95588747744776
 30
0.0
 40
2.7500000000000102
  0
POLYLINE
  5
728
  8
DATA
  6
CONTINUOUS
 62
     7
 66
     1
 10
0.0
 20
0.0
 30
0.0
  0
VERTEX
  5
E24
  8
DATA
  6
CONTINUOUS
 62
     7
 10
-217.72870592322229
 20
35.259298015118013
 30
0.0
  0
VERTEX
  5
E25
  8
DATA
  6
CONTINUOUS
 62
     7
 10
-217.72870592322229
 20
34.204298015118027
 30
0.0
  0
VERTEX
  5
E26
  8
DATA
  6
CONTINUOUS
 62
     7
 10
-218.11870592322231
 20
34.204298015118027
 30
0.0
  0
VERTEX
  5
E27
  8
DATA
  6
CONTINUOUS
 62
     7
 10
-218.11870592322231
 20
35.259298015118013
 30
0.0
  0
SEQEND
  5
E28
  8
DATA
  6
CONTINUOUS
 62
     7
  0
POLYLINE
  5
72E
  8
DATA
  6
CONTINUOUS
 62
     7
 66
     1
 10
0.0
 20
0.0
 30
0.0
  0
VERTEX
  5
E29
  8
DATA
  6
CONTINUOUS
 62
     7
 10
-217.72870592322229
 20
36.649298015118042
 30
0.0
  0
VERTEX
  5
E2A
  8
DATA
  6
CONTINUOUS
 62
     7
 10
-217.72870592322229
 20
37.704298015118049
 30
0.0
  0
VERTEX
  5
E2B
  8
DATA
  6
CONTINUOUS
 62
     7
 10
-218.11870592322231
 20
37.704298015118049
 30
0.0
  0
VERTEX
  5
E2C
  8
DATA
  6
CONTINUOUS
 62
     7
 10
-218.11870592322231
 20
36.649298015118042
 30
0.0
  0
SEQEND
  5
E2D
  8
DATA
  6
CONTINUOUS
 62
     7
  0
POLYLINE
  5
734
  8
DATA
  6
CONTINUOUS
 62
     7
 66
     1
 10
0.0
 20
0.0
 30
0.0
  0
VERTEX
  5
E2E
  8
DATA
  6
CONTINUOUS
 62
     7
 10
-217.22870592322221
 20
35.759298015118013
 30
0.0
  0
VERTEX
  5
E2F
  8
DATA
  6
CONTINUOUS
 62
     7
 10
-216.17370592322229
 20
35.759298015118013
 30
0.0
  0
VERTEX
  5
E30
  8
DATA
  6
CONTINUOUS
 62
     7
 10
-216.17370592322229
 20
36.149298015118021
 30
0.0
  0
VERTEX
  5
E31
  8
DATA
  6
CONTINUOUS
 62
     7
 10
-217.22870592322221
 20
36.149298015118021
 30
0.0
  0
SEQEND
  5
E32
  8
DATA
  6
CONTINUOUS
 62
     7
  0
POLYLINE
  5
73A
  8
DATA
  6
CONTINUOUS
 62
     7
 66
     1
 10
0.0
 20
0.0
 30
0.0
  0
VERTEX
  5
E33
  8
DATA
  6
CONTINUOUS
 62
     7
 10
-218.61870592322231
 20
35.759298015118013
 30
0.0
  0
VERTEX
  5
E34
  8
DATA
  6
CONTINUOUS
 62
     7
 10
-219.67370592322229
 20
35.759298015118013
 30
0.0
  0
VERTEX
  5
E35
  8
DATA
  6
CONTINUOUS
 62
     7
 10
-219.67370592322229
 20
36.149298015118021
 30
0.0
  0
VERTEX
  5
E36
  8
DATA
  6
CONTINUOUS
 62
     7
 10
-218.61870592322231
 20
36.149298015118021
 30
0.0
  0
SEQEND
  5
E37
  8
DATA
  6
CONTINUOUS
 62
     7
  0
ARC
  5
740
  8
DATA
  6
CONTINUOUS
 62
     7
 10
-218.61870592322231
 20
36.649298015118042
 30
0.0
 40
0.5000000000000071
 50
270.0
 51
0.0
  0
ARC
  5
741
  8
DATA
  6
CONTINUOUS
 62
     7
 10
-218.61870592322231
 20
35.259298015118013
 30
0.0
 40
0.5
 50
0.0
 51
90.0
  0
ARC
  5
742
  8
DATA
  6
CONTINUOUS
 62
     7
 10
-217.22870592322221
 20
35.259298015118013
 30
0.0
 40
0.5
 50
90.0
 51
180.0
  0
ARC
  5
743
  8
DATA
  6
CONTINUOUS
 62
     7
 10
-217.22870592322221
 20
36.649298015118042
 30
0.0
 40
0.5
 50
180.0
 51
270.0
  0
CIRCLE
  5
744
  8
DATA
  6
CONTINUOUS
 62
     7
 10
-198.1533360734752
 20
16.15409399955491
 30
0.0
 40
2.7500000000000759
  0
POLYLINE
  5
745
  8
DATA
  6
CONTINUOUS
 62
     7
 66
     1
 10
0.0
 20
0.0
 30
0.0
  0
VERTEX
  5
E38
  8
DATA
  6
CONTINUOUS
 62
     7
 10
-197.93119278922131
 20
15.457504537225191
 30
0.0
  0
VERTEX
  5
E39
  8
DATA
  6
CONTINUOUS
 62
     7
 10
-197.93119278922131
 20
14.40250453722518
 30
0.0
  0
VERTEX
  5
E3A
  8
DATA
  6
CONTINUOUS
 62
     7
 10
-198.3211927892213
 20
14.40250453722518
 30
0.0
  0
VERTEX
  5
E3B
  8
DATA
  6
CONTINUOUS
 62
     7
 10
-198.3211927892213
 20
15.457504537225191
 30
0.0
  0
SEQEND
  5
E3C
  8
DATA
  6
CONTINUOUS
 62
     7
  0
POLYLINE
  5
74B
  8
DATA
  6
CONTINUOUS
 62
     7
 66
     1
 10
0.0
 20
0.0
 30
0.0
  0
VERTEX
  5
E3D
  8
DATA
  6
CONTINUOUS
 62
     7
 10
-197.93119278922131
 20
16.847504537225191
 30
0.0
  0
VERTEX
  5
E3E
  8
DATA
  6
CONTINUOUS
 62
     7
 10
-197.93119278922131
 20
17.902504537225202
 30
0.0
  0
VERTEX
  5
E3F
  8
DATA
  6
CONTINUOUS
 62
     7
 10
-198.3211927892213
 20
17.902504537225202
 30
0.0
  0
VERTEX
  5
E40
  8
DATA
  6
CONTINUOUS
 62
     7
 10
-198.3211927892213
 20
16.847504537225191
 30
0.0
  0
SEQEND
  5
E41
  8
DATA
  6
CONTINUOUS
 62
     7
  0
POLYLINE
  5
751
  8
DATA
  6
CONTINUOUS
 62
     7
 66
     1
 10
0.0
 20
0.0
 30
0.0
  0
VERTEX
  5
E42
  8
DATA
  6
CONTINUOUS
 62
     7
 10
-197.43119278922131
 20
15.957504537225191
 30
0.0
  0
VERTEX
  5
E43
  8
DATA
  6
CONTINUOUS
 62
     7
 10
-196.37619278922131
 20
15.957504537225191
 30
0.0
  0
VERTEX
  5
E44
  8
DATA
  6
CONTINUOUS
 62
     7
 10
-196.37619278922131
 20
16.347504537225181
 30
0.0
  0
VERTEX
  5
E45
  8
DATA
  6
CONTINUOUS
 62
     7
 10
-197.43119278922131
 20
16.347504537225181
 30
0.0
  0
SEQEND
  5
E46
  8
DATA
  6
CONTINUOUS
 62
     7
  0
POLYLINE
  5
757
  8
DATA
  6
CONTINUOUS
 62
     7
 66
     1
 10
0.0
 20
0.0
 30
0.0
  0
VERTEX
  5
E47
  8
DATA
  6
CONTINUOUS
 62
     7
 10
-198.82119278922141
 20
15.957504537225191
 30
0.0
  0
VERTEX
  5
E48
  8
DATA
  6
CONTINUOUS
 62
     7
 10
-199.87619278922139
 20
15.957504537225191
 30
0.0
  0
VERTEX
  5
E49
  8
DATA
  6
CONTINUOUS
 62
     7
 10
-199.87619278922139
 20
16.347504537225181
 30
0.0
  0
VERTEX
  5
E4A
  8
DATA
  6
CONTINUOUS
 62
     7
 10
-198.82119278922141
 20
16.347504537225181
 30
0.0
  0
SEQEND
  5
E4B
  8
DATA
  6
CONTINUOUS
 62
     7
  0
ARC
  5
75D
  8
DATA
  6
CONTINUOUS
 62
     7
 10
-198.82119278922141
 20
16.847504537225191
 30
0.0
 40
0.5000000000000036
 50
270.0
 51
0.0
  0
ARC
  5
75E
  8
DATA
  6
CONTINUOUS
 62
     7
 10
-198.82119278922141
 20
15.457504537225191
 30
0.0
 40
0.5
 50
0.0
 51
90.0
  0
ARC
  5
75F
  8
DATA
  6
CONTINUOUS
 62
     7
 10
-197.43119278922131
 20
15.457504537225191
 30
0.0
 40
0.5000000000000036
 50
90.0
 51
180.0
  0
ARC
  5
760
  8
DATA
  6
CONTINUOUS
 62
     7
 10
-197.43119278922131
 20
16.847504537225191
 30
0.0
 40
0.5000000000000285
 50
180.0
 51
270.0
  0
TEXT
  5
761
  8
DATA
 62
     7
 10
-308.3312521124422
 20
14.867748355786659
 30
0.0
 40
2.0360514322916661
  1
PUSH
 50
180.0
 41
0.8
 11
-308.3312521124422
 21
12.83169692349499
 31
0.0
 73
     3
  0
ARC
  5
762
  8
DATA
  6
CONTINUOUS
 62
     7
 10
-311.08310415552148
 20
26.213379104058109
 30
0.0
 40
10.899999999999929
 50
289.23581260751013
 51
250.76418739248899
  0
CIRCLE
  5
763
  8
DATA
  6
CONTINUOUS
 62
     7
 10
-311.08310415552148
 20
26.213379104058109
 30
0.0
 40
9.8500000000000227
  0
CIRCLE
  5
764
  8
DATA
  6
CONTINUOUS
 62
     7
 10
-311.08310415552148
 20
26.213379104058109
 30
0.0
 40
7.8500000000000218
  0
CIRCLE
  5
765
  8
DATA
  6
CONTINUOUS
 62
     7
 10
-311.08310415552148
 20
30.13451712520061
 30
0.0
 40
1.2649999999999859
  0
CIRCLE
  5
766
  8
DATA
  6
CONTINUOUS
 62
     7
 10
-307.15162256963549
 20
26.213379104058109
 30
0.0
 40
1.264999999999872
  0
CIRCLE
  5
767
  8
DATA
  6
CONTINUOUS
 62
     7
 10
-315.0175485749088
 20
26.213379104058109
 30
0.0
 40
1.2649999999999859
  0
ARC
  5
768
  8
DATA
  6
CONTINUOUS
 62
     7
 10
-312.91096171534321
 20
13.19504527747193
 30
0.0
 40
3.172142440178161
 50
93.110794313929901
 51
266.88920568607011
  0
ARC
  5
769
  8
DATA
  6
CONTINUOUS
 62
     7
 10
-309.25524659569987
 20
13.19504527747193
 30
0.0
 40
3.1721424401781082
 50
273.11079431393
 51
86.889205686070085
  0
LINE
  5
76A
  8
DATA
  6
CONTINUOUS
 62
     7
 10
-309.0831041555216
 20
10.027577102246079
 30
0.0
 11
-313.08310415552148
 21
10.027577102246079
 31
0.0
  0
LINE
  5
76B
  8
DATA
  6
CONTINUOUS
 62
     7
 10
-313.08310415552148
 20
16.362513452697851
 30
0.0
 11
-309.08310415557082
 21
16.362513452697851
 31
0.0
  0
CIRCLE
  5
76C
  8
DATA
  6
CONTINUOUS
 62
     7
 10
-321.0701519544736
 20
35.95330411221704
 30
0.0
 40
2.7500000000000751
  0
POLYLINE
  5
76D
  8
DATA
  6
CONTINUOUS
 62
     7
 66
     1
 10
0.0
 20
0.0
 30
0.0
  0
VERTEX
  5
E4C
  8
DATA
  6
CONTINUOUS
 62
     7
 10
-320.84800867021971
 20
35.256714649887279
 30
0.0
  0
VERTEX
  5
E4D
  8
DATA
  6
CONTINUOUS
 62
     7
 10
-320.84800867021971
 20
34.201714649887208
 30
0.0
  0
VERTEX
  5
E4E
  8
DATA
  6
CONTINUOUS
 62
     7
 10
-321.23800867021959
 20
34.201714649887208
 30
0.0
  0
VERTEX
  5
E4F
  8
DATA
  6
CONTINUOUS
 62
     7
 10
-321.23800867021959
 20
35.256714649887279
 30
0.0
  0
SEQEND
  5
E50
  8
DATA
  6
CONTINUOUS
 62
     7
  0
POLYLINE
  5
773
  8
DATA
  6
CONTINUOUS
 62
     7
 66
     1
 10
0.0
 20
0.0
 30
0.0
  0
VERTEX
  5
E51
  8
DATA
  6
CONTINUOUS
 62
     7
 10
-320.84800867021971
 20
36.646714649887372
 30
0.0
  0
VERTEX
  5
E52
  8
DATA
  6
CONTINUOUS
 62
     7
 10
-320.84800867021971
 20
37.701714649887421
 30
0.0
  0
VERTEX
  5
E53
  8
DATA
  6
CONTINUOUS
 62
     7
 10
-321.23800867021959
 20
37.701714649887421
 30
0.0
  0
VERTEX
  5
E54
  8
DATA
  6
CONTINUOUS
 62
     7
 10
-321.23800867021959
 20
36.646714649887372
 30
0.0
  0
SEQEND
  5
E55
  8
DATA
  6
CONTINUOUS
 62
     7
  0
POLYLINE
  5
779
  8
DATA
  6
CONTINUOUS
 62
     7
 66
     1
 10
0.0
 20
0.0
 30
0.0
  0
VERTEX
  5
E56
  8
DATA
  6
CONTINUOUS
 62
     7
 10
-320.34800867021971
 20
35.756714649887279
 30
0.0
  0
VERTEX
  5
E57
  8
DATA
  6
CONTINUOUS
 62
     7
 10
-319.29300867021959
 20
35.756714649887279
 30
0.0
  0
VERTEX
  5
E58
  8
DATA
  6
CONTINUOUS
 62
     7
 10
-319.29300867021959
 20
36.146714649887322
 30
0.0
  0
VERTEX
  5
E59
  8
DATA
  6
CONTINUOUS
 62
     7
 10
-320.34800867021971
 20
36.146714649887322
 30
0.0
  0
SEQEND
  5
E5A
  8
DATA
  6
CONTINUOUS
 62
     7
  0
POLYLINE
  5
77F
  8
DATA
  6
CONTINUOUS
 62
     7
 66
     1
 10
0.0
 20
0.0
 30
0.0
  0
VERTEX
  5
E5B
  8
DATA
  6
CONTINUOUS
 62
     7
 10
-321.73800867021959
 20
35.756714649887279
 30
0.0
  0
VERTEX
  5
E5C
  8
DATA
  6
CONTINUOUS
 62
     7
 10
-322.79300867021959
 20
35.756714649887279
 30
0.0
  0
VERTEX
  5
E5D
  8
DATA
  6
CONTINUOUS
 62
     7
 10
-322.79300867021959
 20
36.146714649887322
 30
0.0
  0
VERTEX
  5
E5E
  8
DATA
  6
CONTINUOUS
 62
     7
 10
-321.73800867021959
 20
36.146714649887322
 30
0.0
  0
SEQEND
  5
E5F
  8
DATA
  6
CONTINUOUS
 62
     7
  0
ARC
  5
785
  8
DATA
  6
CONTINUOUS
 62
     7
 10
-321.73800867021959
 20
36.646714649887372
 30
0.0
 40
0.500000000000057
 50
270.0
 51
0.0
  0
ARC
  5
786
  8
DATA
  6
CONTINUOUS
 62
     7
 10
-321.73800867021959
 20
35.256714649887279
 30
0.0
 40
0.5
 50
0.0
 51
90.0
  0
ARC
  5
787
  8
DATA
  6
CONTINUOUS
 62
     7
 10
-320.34800867021971
 20
35.256714649887279
 30
0.0
 40
0.5
 50
90.0
 51
180.0
  0
ARC
  5
788
  8
DATA
  6
CONTINUOUS
 62
     7
 10
-320.34800867021971
 20
36.646714649887372
 30
0.0
 40
0.5
 50
180.0
 51
270.0
  0
CIRCLE
  5
789
  8
DATA
  6
CONTINUOUS
 62
     7
 10
-301.26924868415858
 20
16.15171464988714
 30
0.0
 40
2.7499999999999041
  0
POLYLINE
  5
78A
  8
DATA
  6
CONTINUOUS
 62
     7
 66
     1
 10
0.0
 20
0.0
 30
0.0
  0
VERTEX
  5
E60
  8
DATA
  6
CONTINUOUS
 62
     7
 10
-301.04710539990469
 20
15.455125187557369
 30
0.0
  0
VERTEX
  5
E61
  8
DATA
  6
CONTINUOUS
 62
     7
 10
-301.04710539990469
 20
14.400125187557419
 30
0.0
  0
VERTEX
  5
E62
  8
DATA
  6
CONTINUOUS
 62
     7
 10
-301.43710539990468
 20
14.400125187557419
 30
0.0
  0
VERTEX
  5
E63
  8
DATA
  6
CONTINUOUS
 62
     7
 10
-301.43710539990468
 20
15.455125187557369
 30
0.0
  0
SEQEND
  5
E64
  8
DATA
  6
CONTINUOUS
 62
     7
  0
POLYLINE
  5
790
  8
DATA
  6
CONTINUOUS
 62
     7
 66
     1
 10
0.0
 20
0.0
 30
0.0
  0
VERTEX
  5
E65
  8
DATA
  6
CONTINUOUS
 62
     7
 10
-301.04710539990469
 20
16.845125187557421
 30
0.0
  0
VERTEX
  5
E66
  8
DATA
  6
CONTINUOUS
 62
     7
 10
-301.04710539990469
 20
17.900125187557421
 30
0.0
  0
VERTEX
  5
E67
  8
DATA
  6
CONTINUOUS
 62
     7
 10
-301.43710539990468
 20
17.900125187557421
 30
0.0
  0
VERTEX
  5
E68
  8
DATA
  6
CONTINUOUS
 62
     7
 10
-301.43710539990468
 20
16.845125187557421
 30
0.0
  0
SEQEND
  5
E69
  8
DATA
  6
CONTINUOUS
 62
     7
  0
POLYLINE
  5
796
  8
DATA
  6
CONTINUOUS
 62
     7
 66
     1
 10
0.0
 20
0.0
 30
0.0
  0
VERTEX
  5
E6A
  8
DATA
  6
CONTINUOUS
 62
     7
 10
-300.54710539990469
 20
15.955125187557369
 30
0.0
  0
VERTEX
  5
E6B
  8
DATA
  6
CONTINUOUS
 62
     7
 10
-299.4921053999048
 20
15.955125187557369
 30
0.0
  0
VERTEX
  5
E6C
  8
DATA
  6
CONTINUOUS
 62
     7
 10
-299.4921053999048
 20
16.345125187557421
 30
0.0
  0
VERTEX
  5
E6D
  8
DATA
  6
CONTINUOUS
 62
     7
 10
-300.54710539990469
 20
16.345125187557421
 30
0.0
  0
SEQEND
  5
E6E
  8
DATA
  6
CONTINUOUS
 62
     7
  0
POLYLINE
  5
79C
  8
DATA
  6
CONTINUOUS
 62
     7
 66
     1
 10
0.0
 20
0.0
 30
0.0
  0
VERTEX
  5
E6F
  8
DATA
  6
CONTINUOUS
 62
     7
 10
-301.93710539990468
 20
15.955125187557369
 30
0.0
  0
VERTEX
  5
E70
  8
DATA
  6
CONTINUOUS
 62
     7
 10
-302.99210539990457
 20
15.955125187557369
 30
0.0
  0
VERTEX
  5
E71
  8
DATA
  6
CONTINUOUS
 62
     7
 10
-302.99210539990457
 20
16.345125187557421
 30
0.0
  0
VERTEX
  5
E72
  8
DATA
  6
CONTINUOUS
 62
     7
 10
-301.93710539990468
 20
16.345125187557421
 30
0.0
  0
SEQEND
  5
E73
  8
DATA
  6
CONTINUOUS
 62
     7
  0
ARC
  5
7A2
  8
DATA
  6
CONTINUOUS
 62
     7
 10
-301.93710539990468
 20
16.845125187557421
 30
0.0
 40
0.5
 50
270.0
 51
0.0
  0
ARC
  5
7A3
  8
DATA
  6
CONTINUOUS
 62
     7
 10
-301.93710539990468
 20
15.455125187557369
 30
0.0
 40
0.5
 50
0.0
 51
90.0
  0
ARC
  5
7A4
  8
DATA
  6
CONTINUOUS
 62
     7
 10
-300.54710539990469
 20
15.455125187557369
 30
0.0
 40
0.5
 50
90.0
 51
180.0
  0
ARC
  5
7A5
  8
DATA
  6
CONTINUOUS
 62
     7
 10
-300.54710539990469
 20
16.845125187557421
 30
0.0
 40
0.5
 50
180.0
 51
270.0
  0
CIRCLE
  5
7A6
  8
DATA
  6
CONTINUOUS
 62
     7
 10
-232.1083525767892
 20
30.002609754472729
 30
0.0
 40
8.5999999999999641
  0
POLYLINE
  5
7A7
  8
DATA
  6
CONTINUOUS
 62
     7
 66
     1
 10
0.0
 20
0.0
 30
0.0
 70
     1
  0
VERTEX
  5
E74
  8
DATA
  6
CONTINUOUS
 62
     7
 10
-227.84870428687239
 20
37.380537014982551
 30
0.0
  0
VERTEX
  5
E75
  8
DATA
  6
CONTINUOUS
 62
     7
 10
-236.36800086670601
 20
37.380537014982551
 30
0.0
  0
VERTEX
  5
E76
  8
DATA
  6
CONTINUOUS
 62
     7
 10
-240.62764915662291
 20
30.002609754472729
 30
0.0
  0
VERTEX
  5
E77
  8
DATA
  6
CONTINUOUS
 62
     7
 10
-236.36800086670601
 20
22.624682493962901
 30
0.0
  0
VERTEX
  5
E78
  8
DATA
  6
CONTINUOUS
 62
     7
 10
-227.84870428687239
 20
22.624682493962901
 30
0.0
  0
VERTEX
  5
E79
  8
DATA
  6
CONTINUOUS
 62
     7
 10
-223.58905599695561
 20
30.002609754472729
 30
0.0
  0
SEQEND
  5
E7A
  8
DATA
  6
CONTINUOUS
 62
     7
  0
CIRCLE
  5
7AF
  8
DATA
  6
CONTINUOUS
 62
     7
 10
-232.1083525767892
 20
30.002609754472729
 30
0.0
 40
6.1999999999999309
  0
CIRCLE
  5
7B0
  8
DATA
  6
CONTINUOUS
 62
     7
 10
-232.1083525767892
 20
30.002609754472729
 30
0.0
 40
3.099999999999965
  0
CIRCLE
  5
7B1
  8
DATA
  6
CONTINUOUS
 62
     7
 10
-232.1083525767892
 20
30.002609754472729
 30
0.0
 40
4.4999999999999432
  0
CIRCLE
  5
7B2
  8
DATA
  6
CONTINUOUS
 62
     7
 10
-259.46504250598599
 20
32.920536484745263
 30
0.0
 40
2.6000000000000218
  0
CIRCLE
  5
7B3
  8
DATA
  6
CONTINUOUS
 62
     7
 10
-259.46504250598599
 20
32.920536484745263
 30
0.0
 40
1.6500000000000341
  0
LINE
  5
7B4
  8
DATA
  6
CONTINUOUS
 62
     7
 10
-252.4218293690065
 20
24.479603926448242
 30
0.0
 11
-256.77182936900653
 21
24.479603926448242
 31
0.0
  0
LINE
  5
7B5
  8
DATA
  6
CONTINUOUS
 62
     7
 10
-253.37182936900649
 20
21.679603926448241
 30
0.0
 11
-256.77182936900653
 21
21.679603926448241
 31
0.0
  0
LINE
  5
7B6
  8
DATA
  6
CONTINUOUS
 62
     7
 10
-256.77182936900653
 20
24.479603926448242
 30
0.0
 11
-257.7218293690064
 21
24.479603926448242
 31
0.0
  0
LINE
  5
7B7
  8
DATA
  6
CONTINUOUS
 62
     7
 10
-253.37182936900649
 20
21.679603926448241
 30
0.0
 11
-253.02182936900641
 21
24.279603926448239
 31
0.0
  0
LINE
  5
7B8
  8
DATA
  6
CONTINUOUS
 62
     7
 10
-256.77182936900653
 20
21.679603926448241
 30
0.0
 11
-257.12182936900638
 21
24.279603926448239
 31
0.0
  0
LINE
  5
7B9
  8
DATA
  6
CONTINUOUS
 62
     7
 10
-257.7218293690064
 20
24.479603926448242
 30
0.0
 11
-257.7218293690064
 21
24.279603926448239
 31
0.0
  0
LINE
  5
7BA
  8
DATA
  6
CONTINUOUS
 62
     7
 10
-252.4218293690065
 20
24.479603926448242
 30
0.0
 11
-252.4218293690065
 21
24.279603926448239
 31
0.0
  0
LINE
  5
7BB
  8
DATA
  6
CONTINUOUS
 62
     7
 10
-257.7218293690064
 20
24.279603926448239
 30
0.0
 11
-252.43182936900649
 21
24.279603926448239
 31
0.0
  0
LINE
  5
7BC
  8
DATA
  6
CONTINUOUS
 62
     7
 10
-252.4218293690065
 20
28.749411267792318
 30
0.0
 11
-256.77182936900653
 21
28.749411267792318
 31
0.0
  0
LINE
  5
7BD
  8
DATA
  6
CONTINUOUS
 62
     7
 10
-256.77182936900653
 20
28.749411267792318
 30
0.0
 11
-257.7218293690064
 21
28.749411267792318
 31
0.0
  0
LINE
  5
7BE
  8
DATA
  6
CONTINUOUS
 62
     7
 10
-253.22375244592959
 20
27.049411267792301
 30
0.0
 11
-253.02182936900641
 21
28.549411267792319
 31
0.0
  0
LINE
  5
7BF
  8
DATA
  6
CONTINUOUS
 62
     7
 10
-256.9199062920834
 20
27.049411267792301
 30
0.0
 11
-257.12182936900638
 21
28.549411267792319
 31
0.0
  0
LINE
  5
7C0
  8
DATA
  6
CONTINUOUS
 62
     7
 10
-257.7218293690064
 20
28.749411267792318
 30
0.0
 11
-257.7218293690064
 21
28.549411267792319
 31
0.0
  0
LINE
  5
7C1
  8
DATA
  6
CONTINUOUS
 62
     7
 10
-252.4218293690065
 20
28.749411267792318
 30
0.0
 11
-252.4218293690065
 21
28.549411267792319
 31
0.0
  0
LINE
  5
7C2
  8
DATA
  6
CONTINUOUS
 62
     7
 10
-257.7218293690064
 20
28.549411267792319
 30
0.0
 11
-252.43182936900649
 21
28.549411267792319
 31
0.0
  0
LINE
  5
7C3
  8
DATA
  6
CONTINUOUS
 62
     7
 10
-253.22375244592959
 20
27.049411267792301
 30
0.0
 11
-256.9199062920834
 21
27.049411267792301
 31
0.0
  0
TEXT
  5
7C4
  8
DATA
 62
     7
 10
-258.6201988961617
 20
23.761532259841811
 30
0.0
 40
1.6288411458333329
  1
+4dBu
 50
180.0
 41
0.8
 11
-258.6201988961617
 21
22.13269111400848
 31
0.0
 73
     3
  0
TEXT
  5
7C5
  8
DATA
 62
     7
 10
-258.22290995770737
 20
28.635905050898561
 30
0.0
 40
1.6288411458333329
  1
-10dBV
 50
180.0
 41
0.8
 11
-258.22290995770737
 21
27.00706390506523
 31
0.0
 73
     3
  0
POLYLINE
  5
7C6
  8
DATA
  6
CONTINUOUS
 62
     7
 66
     1
 10
0.0
 20
0.0
 30
0.0
 70
     1
  0
VERTEX
  5
E7B
  8
DATA
  6
CONTINUOUS
 62
     7
 10
-268.75258404663867
 20
41.992188034270207
 30
0.0
  0
VERTEX
  5
E7C
  8
DATA
  6
CONTINUOUS
 62
     7
 10
-250.45258404663869
 20
41.992188034270207
 30
0.0
  0
VERTEX
  5
E7D
  8
DATA
  6
CONTINUOUS
 62
     7
 10
-250.45258404663869
 20
19.9921880342702
 30
0.0
  0
VERTEX
  5
E7E
  8
DATA
  6
CONTINUOUS
 62
     7
 10
-268.75258404663867
 20
19.9921880342702
 30
0.0
  0
SEQEND
  5
E7F
  8
DATA
  6
CONTINUOUS
 62
     7
  0
POLYLINE
  5
7CC
  8
DATA
  6
CONTINUOUS
 62
     7
 66
     1
 10
0.0
 20
0.0
 30
0.0
 70
   129
  0
VERTEX
  5
E80
  8
DATA
  6
CONTINUOUS
 62
     7
 10
-195.10258404663861
 20
9.9878286554449858
 30
0.0
 42
-0.4142135623730951
  0
VERTEX
  5
E81
  8
DATA
  6
CONTINUOUS
 62
     7
 10
-198.10258404663861
 20
6.9878286554449849
 30
0.0
  0
VERTEX
  5
E82
  8
DATA
  6
CONTINUOUS
 62
     7
 10
-321.1025840466387
 20
6.9878286554449849
 30
0.0
 42
-0.4142135623730895
  0
VERTEX
  5
E83
  8
DATA
  6
CONTINUOUS
 62
     7
 10
-324.1025840466387
 20
9.9878286554449858
 30
0.0
  0
VERTEX
  5
E84
  8
DATA
  6
CONTINUOUS
 62
     7
 10
-324.1025840466387
 20
38.987828655444993
 30
0.0
 42
-0.4142135623730924
  0
VERTEX
  5
E85
  8
DATA
  6
CONTINUOUS
 62
     7
 10
-321.1025840466387
 20
41.987828655444979
 30
0.0
  0
VERTEX
  5
E86
  8
DATA
  6
CONTINUOUS
 62
     7
 10
-198.10258404663861
 20
41.987828655444979
 30
0.0
 42
-0.4142135623730951
  0
VERTEX
  5
E87
  8
DATA
  6
CONTINUOUS
 62
     7
 10
-195.10258404663861
 20
38.987828655444993
 30
0.0
  0
SEQEND
  5
E88
  8
DATA
  6
CONTINUOUS
 62
     7
  0
TEXT
  5
7D6
  8
DATA
 62
     7
 10
-253.0136123620529
 20
10.76620743553128
 30
0.0
 40
2.30859375
  1
CHANNEL 1
 50
180.0
 41
0.8
 11
-253.0136123620529
 21
8.4576136855312871
 31
0.0
 73
     3
  0
TEXT
  5
7D7
  8
DATA
 62
     7
 10
-92.823252844686166
 20
13.23813355771817
 30
0.0
 40
2.693359375
  1
  OUTPUTS
 50
180.0
 41
0.8
 11
-92.823252844686166
 21
10.54477418271817
 31
0.0
 73
     3
  0
TEXT
  5
7D8
  8
DATA
 62
     7
 10
-149.2299470547205
 20
13.494904947113641
 30
0.0
 40
2.693359375
  1
 INPUTS
 50
180.0
 41
0.8
 11
-149.2299470547205
 21
10.801545572113641
 31
0.0
 73
     3
  0
CIRCLE
  5
7D9
  8
DATA
  6
CONTINUOUS
 62
     7
 10
-156.3150081633614
 20
30.002609754472729
 30
0.0
 40
8.5999999999999943
  0
POLYLINE
  5
7DA
  8
DATA
  6
CONTINUOUS
 62
     7
 66
     1
 10
0.0
 20
0.0
 30
0.0
 70
     1
  0
VERTEX
  5
E89
  8
DATA
  6
CONTINUOUS
 62
     7
 10
-152.0553598734447
 20
37.380537014982551
 30
0.0
  0
VERTEX
  5
E8A
  8
DATA
  6
CONTINUOUS
 62
     7
 10
-160.57465645327829
 20
37.380537014982551
 30
0.0
  0
VERTEX
  5
E8B
  8
DATA
  6
CONTINUOUS
 62
     7
 10
-164.8343047431951
 20
30.002609754472729
 30
0.0
  0
VERTEX
  5
E8C
  8
DATA
  6
CONTINUOUS
 62
     7
 10
-160.57465645327821
 20
22.624682493962901
 30
0.0
  0
VERTEX
  5
E8D
  8
DATA
  6
CONTINUOUS
 62
     7
 10
-152.05535987344459
 20
22.624682493962901
 30
0.0
  0
VERTEX
  5
E8E
  8
DATA
  6
CONTINUOUS
 62
     7
 10
-147.7957115835278
 20
30.002609754472729
 30
0.0
  0
SEQEND
  5
E8F
  8
DATA
  6
CONTINUOUS
 62
     7
  0
CIRCLE
  5
7E2
  8
DATA
  6
CONTINUOUS
 62
     7
 10
-156.3150081633614
 20
30.002609754472729
 30
0.0
 40
6.1999999999999602
  0
CIRCLE
  5
7E3
  8
DATA
  6
CONTINUOUS
 62
     7
 10
-156.3150081633614
 20
30.002609754472729
 30
0.0
 40
3.0999999999999939
  0
CIRCLE
  5
7E4
  8
DATA
  6
CONTINUOUS
 62
     7
 10
-156.3150081633614
 20
30.002609754472729
 30
0.0
 40
4.4999999999999707
  0
CIRCLE
  5
7E5
  8
DATA
  6
CONTINUOUS
 62
     7
 10
-77.22832254921363
 20
26.12035276420961
 30
0.0
 40
11.0
  0
CIRCLE
  5
7E6
  8
DATA
  6
CONTINUOUS
 62
     7
 10
-77.228231140255701
 20
26.055196886594661
 30
0.0
 40
8.2499999999999876
  0
CIRCLE
  5
7E7
  8
DATA
  6
CONTINUOUS
 62
     7
 10
-73.232364350652432
 20
26.33752591668641
 30
0.0
 40
1.175000000000008
  0
CIRCLE
  5
7E8
  8
DATA
  6
CONTINUOUS
 62
     7
 10
-81.228536040112289
 20
26.320352764209609
 30
0.0
 40
1.1750000000000109
  0
CIRCLE
  5
7E9
  8
DATA
  6
CONTINUOUS
 62
     7
 10
-77.22837342725731
 20
30.004115222550752
 30
0.0
 40
1.1750000000000109
  0
CIRCLE
  5
7EA
  8
DATA
  6
CONTINUOUS
 62
     7
 10
-87.157504794048506
 20
35.95588747744776
 30
0.0
 40
2.7500000000000102
  0
POLYLINE
  5
7EB
  8
DATA
  6
CONTINUOUS
 62
     7
 66
     1
 10
0.0
 20
0.0
 30
0.0
  0
VERTEX
  5
E90
  8
DATA
  6
CONTINUOUS
 62
     7
 10
-86.935361509794575
 20
35.259298015118013
 30
0.0
  0
VERTEX
  5
E91
  8
DATA
  6
CONTINUOUS
 62
     7
 10
-86.935361509794575
 20
34.204298015118027
 30
0.0
  0
VERTEX
  5
E92
  8
DATA
  6
CONTINUOUS
 62
     7
 10
-87.325361509794561
 20
34.204298015118027
 30
0.0
  0
VERTEX
  5
E93
  8
DATA
  6
CONTINUOUS
 62
     7
 10
-87.325361509794561
 20
35.259298015118013
 30
0.0
  0
SEQEND
  5
E94
  8
DATA
  6
CONTINUOUS
 62
     7
  0
POLYLINE
  5
7F1
  8
DATA
  6
CONTINUOUS
 62
     7
 66
     1
 10
0.0
 20
0.0
 30
0.0
  0
VERTEX
  5
E95
  8
DATA
  6
CONTINUOUS
 62
     7
 10
-86.935361509794575
 20
36.649298015118042
 30
0.0
  0
VERTEX
  5
E96
  8
DATA
  6
CONTINUOUS
 62
     7
 10
-86.935361509794575
 20
37.704298015118049
 30
0.0
  0
VERTEX
  5
E97
  8
DATA
  6
CONTINUOUS
 62
     7
 10
-87.325361509794561
 20
37.704298015118049
 30
0.0
  0
VERTEX
  5
E98
  8
DATA
  6
CONTINUOUS
 62
     7
 10
-87.325361509794561
 20
36.649298015118042
 30
0.0
  0
SEQEND
  5
E99
  8
DATA
  6
CONTINUOUS
 62
     7
  0
POLYLINE
  5
7F7
  8
DATA
  6
CONTINUOUS
 62
     7
 66
     1
 10
0.0
 20
0.0
 30
0.0
  0
VERTEX
  5
E9A
  8
DATA
  6
CONTINUOUS
 62
     7
 10
-86.435361509794575
 20
35.759298015118013
 30
0.0
  0
VERTEX
  5
E9B
  8
DATA
  6
CONTINUOUS
 62
     7
 10
-85.380361509794554
 20
35.759298015118013
 30
0.0
  0
VERTEX
  5
E9C
  8
DATA
  6
CONTINUOUS
 62
     7
 10
-85.380361509794554
 20
36.149298015118021
 30
0.0
  0
VERTEX
  5
E9D
  8
DATA
  6
CONTINUOUS
 62
     7
 10
-86.435361509794575
 20
36.149298015118021
 30
0.0
  0
SEQEND
  5
E9E
  8
DATA
  6
CONTINUOUS
 62
     7
  0
POLYLINE
  5
7FD
  8
DATA
  6
CONTINUOUS
 62
     7
 66
     1
 10
0.0
 20
0.0
 30
0.0
  0
VERTEX
  5
E9F
  8
DATA
  6
CONTINUOUS
 62
     7
 10
-87.825361509794561
 20
35.759298015118013
 30
0.0
  0
VERTEX
  5
EA0
  8
DATA
  6
CONTINUOUS
 62
     7
 10
-88.880361509794554
 20
35.759298015118013
 30
0.0
  0
VERTEX
  5
EA1
  8
DATA
  6
CONTINUOUS
 62
     7
 10
-88.880361509794554
 20
36.149298015118021
 30
0.0
  0
VERTEX
  5
EA2
  8
DATA
  6
CONTINUOUS
 62
     7
 10
-87.825361509794561
 20
36.149298015118021
 30
0.0
  0
SEQEND
  5
EA3
  8
DATA
  6
CONTINUOUS
 62
     7
  0
ARC
  5
803
  8
DATA
  6
CONTINUOUS
 62
     7
 10
-87.825361509794561
 20
36.649298015118042
 30
0.0
 40
0.5000000000000071
 50
270.0
 51
0.0
  0
ARC
  5
804
  8
DATA
  6
CONTINUOUS
 62
     7
 10
-87.825361509794561
 20
35.259298015118013
 30
0.0
 40
0.5
 50
0.0
 51
90.0
  0
ARC
  5
805
  8
DATA
  6
CONTINUOUS
 62
     7
 10
-86.435361509794575
 20
35.259298015118013
 30
0.0
 40
0.5
 50
90.0
 51
180.0
  0
ARC
  5
806
  8
DATA
  6
CONTINUOUS
 62
     7
 10
-86.435361509794575
 20
36.649298015118042
 30
0.0
 40
0.5
 50
180.0
 51
270.0
  0
CIRCLE
  5
807
  8
DATA
  6
CONTINUOUS
 62
     7
 10
-67.359991660047584
 20
16.15409399955491
 30
0.0
 40
2.7500000000000551
  0
POLYLINE
  5
808
  8
DATA
  6
CONTINUOUS
 62
     7
 66
     1
 10
0.0
 20
0.0
 30
0.0
  0
VERTEX
  5
EA4
  8
DATA
  6
CONTINUOUS
 62
     7
 10
-67.137848375793652
 20
15.457504537225191
 30
0.0
  0
VERTEX
  5
EA5
  8
DATA
  6
CONTINUOUS
 62
     7
 10
-67.137848375793652
 20
14.40250453722518
 30
0.0
  0
VERTEX
  5
EA6
  8
DATA
  6
CONTINUOUS
 62
     7
 10
-67.527848375793639
 20
14.40250453722518
 30
0.0
  0
VERTEX
  5
EA7
  8
DATA
  6
CONTINUOUS
 62
     7
 10
-67.527848375793639
 20
15.457504537225191
 30
0.0
  0
SEQEND
  5
EA8
  8
DATA
  6
CONTINUOUS
 62
     7
  0
POLYLINE
  5
80E
  8
DATA
  6
CONTINUOUS
 62
     7
 66
     1
 10
0.0
 20
0.0
 30
0.0
  0
VERTEX
  5
EA9
  8
DATA
  6
CONTINUOUS
 62
     7
 10
-67.137848375793652
 20
16.847504537225191
 30
0.0
  0
VERTEX
  5
EAA
  8
DATA
  6
CONTINUOUS
 62
     7
 10
-67.137848375793652
 20
17.902504537225202
 30
0.0
  0
VERTEX
  5
EAB
  8
DATA
  6
CONTINUOUS
 62
     7
 10
-67.527848375793639
 20
17.902504537225202
 30
0.0
  0
VERTEX
  5
EAC
  8
DATA
  6
CONTINUOUS
 62
     7
 10
-67.527848375793639
 20
16.847504537225191
 30
0.0
  0
SEQEND
  5
EAD
  8
DATA
  6
CONTINUOUS
 62
     7
  0
POLYLINE
  5
814
  8
DATA
  6
CONTINUOUS
 62
     7
 66
     1
 10
0.0
 20
0.0
 30
0.0
  0
VERTEX
  5
EAE
  8
DATA
  6
CONTINUOUS
 62
     7
 10
-66.637848375793624
 20
15.957504537225191
 30
0.0
  0
VERTEX
  5
EAF
  8
DATA
  6
CONTINUOUS
 62
     7
 10
-65.582848375793617
 20
15.957504537225191
 30
0.0
  0
VERTEX
  5
EB0
  8
DATA
  6
CONTINUOUS
 62
     7
 10
-65.582848375793617
 20
16.347504537225181
 30
0.0
  0
VERTEX
  5
EB1
  8
DATA
  6
CONTINUOUS
 62
     7
 10
-66.637848375793624
 20
16.347504537225181
 30
0.0
  0
SEQEND
  5
EB2
  8
DATA
  6
CONTINUOUS
 62
     7
  0
POLYLINE
  5
81A
  8
DATA
  6
CONTINUOUS
 62
     7
 66
     1
 10
0.0
 20
0.0
 30
0.0
  0
VERTEX
  5
EB3
  8
DATA
  6
CONTINUOUS
 62
     7
 10
-68.027848375793681
 20
15.957504537225191
 30
0.0
  0
VERTEX
  5
EB4
  8
DATA
  6
CONTINUOUS
 62
     7
 10
-69.082848375793674
 20
15.957504537225191
 30
0.0
  0
VERTEX
  5
EB5
  8
DATA
  6
CONTINUOUS
 62
     7
 10
-69.082848375793674
 20
16.347504537225181
 30
0.0
  0
VERTEX
  5
EB6
  8
DATA
  6
CONTINUOUS
 62
     7
 10
-68.027848375793681
 20
16.347504537225181
 30
0.0
  0
SEQEND
  5
EB7
  8
DATA
  6
CONTINUOUS
 62
     7
  0
ARC
  5
820
  8
DATA
  6
CONTINUOUS
 62
     7
 10
-68.027848375793681
 20
16.847504537225191
 30
0.0
 40
0.5000000000000036
 50
270.0
 51
0.0
  0
ARC
  5
821
  8
DATA
  6
CONTINUOUS
 62
     7
 10
-68.027848375793681
 20
15.457504537225191
 30
0.0
 40
0.5000000000000285
 50
0.0
 51
90.0
  0
ARC
  5
822
  8
DATA
  6
CONTINUOUS
 62
     7
 10
-66.637848375793624
 20
15.457504537225191
 30
0.0
 40
0.5000000000000036
 50
90.0
 51
180.0
  0
ARC
  5
823
  8
DATA
  6
CONTINUOUS
 62
     7
 10
-66.637848375793624
 20
16.847504537225191
 30
0.0
 40
0.5000000000000285
 50
180.0
 51
270.0
  0
TEXT
  5
824
  8
DATA
 62
     7
 10
-177.53790769901451
 20
14.867748355786659
 30
0.0
 40
2.0360514322916661
  1
PUSH
 50
180.0
 41
0.8
 11
-177.53790769901451
 21
12.83169692349499
 31
0.0
 73
     3
  0
ARC
  5
825
  8
DATA
  6
CONTINUOUS
 62
     7
 10
-180.28975974209379
 20
26.213379104058109
 30
0.0
 40
10.899999999999929
 50
289.23581260751013
 51
250.76418739248899
  0
CIRCLE
  5
826
  8
DATA
  6
CONTINUOUS
 62
     7
 10
-180.28975974209379
 20
26.213379104058109
 30
0.0
 40
9.8500000000000227
  0
CIRCLE
  5
827
  8
DATA
  6
CONTINUOUS
 62
     7
 10
-180.28975974209379
 20
26.213379104058109
 30
0.0
 40
7.8500000000000218
  0
CIRCLE
  5
828
  8
DATA
  6
CONTINUOUS
 62
     7
 10
-180.28975974209379
 20
30.13451712520061
 30
0.0
 40
1.2649999999999859
  0
CIRCLE
  5
829
  8
DATA
  6
CONTINUOUS
 62
     7
 10
-176.3582781562078
 20
26.213379104058109
 30
0.0
 40
1.264999999999872
  0
CIRCLE
  5
82A
  8
DATA
  6
CONTINUOUS
 62
     7
 10
-184.22420416148111
 20
26.213379104058109
 30
0.0
 40
1.2649999999999859
  0
ARC
  5
82B
  8
DATA
  6
CONTINUOUS
 62
     7
 10
-182.1176173019156
 20
13.19504527747193
 30
0.0
 40
3.172142440178161
 50
93.110794313929901
 51
266.88920568607011
  0
ARC
  5
82C
  8
DATA
  6
CONTINUOUS
 62
     7
 10
-178.46190218227221
 20
13.19504527747193
 30
0.0
 40
3.1721424401781082
 50
273.11079431393
 51
86.889205686070085
  0
LINE
  5
82D
  8
DATA
  6
CONTINUOUS
 62
     7
 10
-178.28975974209391
 20
10.027577102246079
 30
0.0
 11
-182.28975974209379
 21
10.027577102246079
 31
0.0
  0
LINE
  5
82E
  8
DATA
  6
CONTINUOUS
 62
     7
 10
-182.28975974209379
 20
16.362513452697851
 30
0.0
 11
-178.28975974214299
 21
16.362513452697851
 31
0.0
  0
CIRCLE
  5
82F
  8
DATA
  6
CONTINUOUS
 62
     7
 10
-190.27680754104591
 20
35.95330411221704
 30
0.0
 40
2.7500000000000751
  0
POLYLINE
  5
830
  8
DATA
  6
CONTINUOUS
 62
     7
 66
     1
 10
0.0
 20
0.0
 30
0.0
  0
VERTEX
  5
EB8
  8
DATA
  6
CONTINUOUS
 62
     7
 10
-190.05466425679199
 20
35.256714649887279
 30
0.0
  0
VERTEX
  5
EB9
  8
DATA
  6
CONTINUOUS
 62
     7
 10
-190.05466425679199
 20
34.201714649887208
 30
0.0
  0
VERTEX
  5
EBA
  8
DATA
  6
CONTINUOUS
 62
     7
 10
-190.4446642567919
 20
34.201714649887208
 30
0.0
  0
VERTEX
  5
EBB
  8
DATA
  6
CONTINUOUS
 62
     7
 10
-190.4446642567919
 20
35.256714649887279
 30
0.0
  0
SEQEND
  5
EBC
  8
DATA
  6
CONTINUOUS
 62
     7
  0
POLYLINE
  5
836
  8
DATA
  6
CONTINUOUS
 62
     7
 66
     1
 10
0.0
 20
0.0
 30
0.0
  0
VERTEX
  5
EBD
  8
DATA
  6
CONTINUOUS
 62
     7
 10
-190.05466425679199
 20
36.646714649887372
 30
0.0
  0
VERTEX
  5
EBE
  8
DATA
  6
CONTINUOUS
 62
     7
 10
-190.05466425679199
 20
37.701714649887421
 30
0.0
  0
VERTEX
  5
EBF
  8
DATA
  6
CONTINUOUS
 62
     7
 10
-190.4446642567919
 20
37.701714649887421
 30
0.0
  0
VERTEX
  5
EC0
  8
DATA
  6
CONTINUOUS
 62
     7
 10
-190.4446642567919
 20
36.646714649887372
 30
0.0
  0
SEQEND
  5
EC1
  8
DATA
  6
CONTINUOUS
 62
     7
  0
POLYLINE
  5
83C
  8
DATA
  6
CONTINUOUS
 62
     7
 66
     1
 10
0.0
 20
0.0
 30
0.0
  0
VERTEX
  5
EC2
  8
DATA
  6
CONTINUOUS
 62
     7
 10
-189.55466425679199
 20
35.756714649887279
 30
0.0
  0
VERTEX
  5
EC3
  8
DATA
  6
CONTINUOUS
 62
     7
 10
-188.49966425679199
 20
35.756714649887279
 30
0.0
  0
VERTEX
  5
EC4
  8
DATA
  6
CONTINUOUS
 62
     7
 10
-188.49966425679199
 20
36.146714649887322
 30
0.0
  0
VERTEX
  5
EC5
  8
DATA
  6
CONTINUOUS
 62
     7
 10
-189.55466425679199
 20
36.146714649887322
 30
0.0
  0
SEQEND
  5
EC6
  8
DATA
  6
CONTINUOUS
 62
     7
  0
POLYLINE
  5
842
  8
DATA
  6
CONTINUOUS
 62
     7
 66
     1
 10
0.0
 20
0.0
 30
0.0
  0
VERTEX
  5
EC7
  8
DATA
  6
CONTINUOUS
 62
     7
 10
-190.9446642567919
 20
35.756714649887279
 30
0.0
  0
VERTEX
  5
EC8
  8
DATA
  6
CONTINUOUS
 62
     7
 10
-191.99966425679199
 20
35.756714649887279
 30
0.0
  0
VERTEX
  5
EC9
  8
DATA
  6
CONTINUOUS
 62
     7
 10
-191.99966425679199
 20
36.146714649887322
 30
0.0
  0
VERTEX
  5
ECA
  8
DATA
  6
CONTINUOUS
 62
     7
 10
-190.9446642567919
 20
36.146714649887322
 30
0.0
  0
SEQEND
  5
ECB
  8
DATA
  6
CONTINUOUS
 62
     7
  0
ARC
  5
848
  8
DATA
  6
CONTINUOUS
 62
     7
 10
-190.9446642567919
 20
36.646714649887372
 30
0.0
 40
0.500000000000057
 50
270.0
 51
0.0
  0
ARC
  5
849
  8
DATA
  6
CONTINUOUS
 62
     7
 10
-190.9446642567919
 20
35.256714649887279
 30
0.0
 40
0.5
 50
0.0
 51
90.0
  0
ARC
  5
84A
  8
DATA
  6
CONTINUOUS
 62
     7
 10
-189.55466425679199
 20
35.256714649887279
 30
0.0
 40
0.5
 50
90.0
 51
180.0
  0
ARC
  5
84B
  8
DATA
  6
CONTINUOUS
 62
     7
 10
-189.55466425679199
 20
36.646714649887372
 30
0.0
 40
0.5
 50
180.0
 51
270.0
  0
CIRCLE
  5
84C
  8
DATA
  6
CONTINUOUS
 62
     7
 10
-170.47590427073101
 20
16.15171464988714
 30
0.0
 40
2.7499999999999241
  0
POLYLINE
  5
84D
  8
DATA
  6
CONTINUOUS
 62
     7
 66
     1
 10
0.0
 20
0.0
 30
0.0
  0
VERTEX
  5
ECC
  8
DATA
  6
CONTINUOUS
 62
     7
 10
-170.25376098647689
 20
15.455125187557369
 30
0.0
  0
VERTEX
  5
ECD
  8
DATA
  6
CONTINUOUS
 62
     7
 10
-170.25376098647689
 20
14.400125187557419
 30
0.0
  0
VERTEX
  5
ECE
  8
DATA
  6
CONTINUOUS
 62
     7
 10
-170.64376098647691
 20
14.400125187557419
 30
0.0
  0
VERTEX
  5
ECF
  8
DATA
  6
CONTINUOUS
 62
     7
 10
-170.64376098647691
 20
15.455125187557369
 30
0.0
  0
SEQEND
  5
ED0
  8
DATA
  6
CONTINUOUS
 62
     7
  0
POLYLINE
  5
853
  8
DATA
  6
CONTINUOUS
 62
     7
 66
     1
 10
0.0
 20
0.0
 30
0.0
  0
VERTEX
  5
ED1
  8
DATA
  6
CONTINUOUS
 62
     7
 10
-170.25376098647689
 20
16.845125187557421
 30
0.0
  0
VERTEX
  5
ED2
  8
DATA
  6
CONTINUOUS
 62
     7
 10
-170.25376098647689
 20
17.900125187557421
 30
0.0
  0
VERTEX
  5
ED3
  8
DATA
  6
CONTINUOUS
 62
     7
 10
-170.64376098647691
 20
17.900125187557421
 30
0.0
  0
VERTEX
  5
ED4
  8
DATA
  6
CONTINUOUS
 62
     7
 10
-170.64376098647691
 20
16.845125187557421
 30
0.0
  0
SEQEND
  5
ED5
  8
DATA
  6
CONTINUOUS
 62
     7
  0
POLYLINE
  5
859
  8
DATA
  6
CONTINUOUS
 62
     7
 66
     1
 10
0.0
 20
0.0
 30
0.0
  0
VERTEX
  5
ED6
  8
DATA
  6
CONTINUOUS
 62
     7
 10
-169.753760986477
 20
15.955125187557369
 30
0.0
  0
VERTEX
  5
ED7
  8
DATA
  6
CONTINUOUS
 62
     7
 10
-168.698760986477
 20
15.955125187557369
 30
0.0
  0
VERTEX
  5
ED8
  8
DATA
  6
CONTINUOUS
 62
     7
 10
-168.698760986477
 20
16.345125187557421
 30
0.0
  0
VERTEX
  5
ED9
  8
DATA
  6
CONTINUOUS
 62
     7
 10
-169.753760986477
 20
16.345125187557421
 30
0.0
  0
SEQEND
  5
EDA
  8
DATA
  6
CONTINUOUS
 62
     7
  0
POLYLINE
  5
85F
  8
DATA
  6
CONTINUOUS
 62
     7
 66
     1
 10
0.0
 20
0.0
 30
0.0
  0
VERTEX
  5
EDB
  8
DATA
  6
CONTINUOUS
 62
     7
 10
-171.14376098647691
 20
15.955125187557369
 30
0.0
  0
VERTEX
  5
EDC
  8
DATA
  6
CONTINUOUS
 62
     7
 10
-172.19876098647691
 20
15.955125187557369
 30
0.0
  0
VERTEX
  5
EDD
  8
DATA
  6
CONTINUOUS
 62
     7
 10
-172.19876098647691
 20
16.345125187557421
 30
0.0
  0
VERTEX
  5
EDE
  8
DATA
  6
CONTINUOUS
 62
     7
 10
-171.14376098647691
 20
16.345125187557421
 30
0.0
  0
SEQEND
  5
EDF
  8
DATA
  6
CONTINUOUS
 62
     7
  0
ARC
  5
865
  8
DATA
  6
CONTINUOUS
 62
     7
 10
-171.14376098647691
 20
16.845125187557421
 30
0.0
 40
0.5
 50
270.0
 51
0.0
  0
ARC
  5
866
  8
DATA
  6
CONTINUOUS
 62
     7
 10
-171.14376098647691
 20
15.455125187557369
 30
0.0
 40
0.5
 50
0.0
 51
90.0
  0
ARC
  5
867
  8
DATA
  6
CONTINUOUS
 62
     7
 10
-169.753760986477
 20
15.455125187557369
 30
0.0
 40
0.5
 50
90.0
 51
180.0
  0
ARC
  5
868
  8
DATA
  6
CONTINUOUS
 62
     7
 10
-169.753760986477
 20
16.845125187557421
 30
0.0
 40
0.5
 50
180.0
 51
270.0
  0
CIRCLE
  5
869
  8
DATA
  6
CONTINUOUS
 62
     7
 10
-101.3150081633615
 20
30.002609754472729
 30
0.0
 40
8.5999999999999943
  0
POLYLINE
  5
86A
  8
DATA
  6
CONTINUOUS
 62
     7
 66
     1
 10
0.0
 20
0.0
 30
0.0
 70
     1
  0
VERTEX
  5
EE0
  8
DATA
  6
CONTINUOUS
 62
     7
 10
-97.055359873444715
 20
37.380537014982551
 30
0.0
  0
VERTEX
  5
EE1
  8
DATA
  6
CONTINUOUS
 62
     7
 10
-105.57465645327829
 20
37.380537014982551
 30
0.0
  0
VERTEX
  5
EE2
  8
DATA
  6
CONTINUOUS
 62
     7
 10
-109.8343047431951
 20
30.002609754472729
 30
0.0
  0
VERTEX
  5
EE3
  8
DATA
  6
CONTINUOUS
 62
     7
 10
-105.57465645327829
 20
22.624682493962901
 30
0.0
  0
VERTEX
  5
EE4
  8
DATA
  6
CONTINUOUS
 62
     7
 10
-97.05535987344463
 20
22.624682493962901
 30
0.0
  0
VERTEX
  5
EE5
  8
DATA
  6
CONTINUOUS
 62
     7
 10
-92.795711583527847
 20
30.002609754472729
 30
0.0
  0
SEQEND
  5
EE6
  8
DATA
  6
CONTINUOUS
 62
     7
  0
CIRCLE
  5
872
  8
DATA
  6
CONTINUOUS
 62
     7
 10
-101.3150081633615
 20
30.002609754472729
 30
0.0
 40
6.1999999999999602
  0
CIRCLE
  5
873
  8
DATA
  6
CONTINUOUS
 62
     7
 10
-101.3150081633615
 20
30.002609754472729
 30
0.0
 40
3.0999999999999939
  0
CIRCLE
  5
874
  8
DATA
  6
CONTINUOUS
 62
     7
 10
-101.3150081633615
 20
30.002609754472729
 30
0.0
 40
4.4999999999999707
  0
CIRCLE
  5
875
  8
DATA
  6
CONTINUOUS
 62
     7
 10
-128.67169809255819
 20
32.920536484745263
 30
0.0
 40
2.6000000000000512
  0
CIRCLE
  5
876
  8
DATA
  6
CONTINUOUS
 62
     7
 10
-128.67169809255819
 20
32.920536484745263
 30
0.0
 40
1.6500000000000341
  0
LINE
  5
877
  8
DATA
  6
CONTINUOUS
 62
     7
 10
-121.6284849555787
 20
24.479603926448242
 30
0.0
 11
-125.97848495557869
 21
24.479603926448242
 31
0.0
  0
LINE
  5
878
  8
DATA
  6
CONTINUOUS
 62
     7
 10
-122.5784849555787
 20
21.679603926448241
 30
0.0
 11
-125.97848495557869
 21
21.679603926448241
 31
0.0
  0
LINE
  5
879
  8
DATA
  6
CONTINUOUS
 62
     7
 10
-125.97848495557869
 20
24.479603926448242
 30
0.0
 11
-126.9284849555788
 21
24.479603926448242
 31
0.0
  0
LINE
  5
87A
  8
DATA
  6
CONTINUOUS
 62
     7
 10
-122.5784849555787
 20
21.679603926448241
 30
0.0
 11
-122.22848495557869
 21
24.279603926448239
 31
0.0
  0
LINE
  5
87B
  8
DATA
  6
CONTINUOUS
 62
     7
 10
-125.97848495557869
 20
21.679603926448241
 30
0.0
 11
-126.3284849555787
 21
24.279603926448239
 31
0.0
  0
LINE
  5
87C
  8
DATA
  6
CONTINUOUS
 62
     7
 10
-126.9284849555788
 20
24.479603926448242
 30
0.0
 11
-126.9284849555788
 21
24.279603926448239
 31
0.0
  0
LINE
  5
87D
  8
DATA
  6
CONTINUOUS
 62
     7
 10
-121.6284849555787
 20
24.479603926448242
 30
0.0
 11
-121.6284849555787
 21
24.279603926448239
 31
0.0
  0
LINE
  5
87E
  8
DATA
  6
CONTINUOUS
 62
     7
 10
-126.9284849555788
 20
24.279603926448239
 30
0.0
 11
-121.6384849555787
 21
24.279603926448239
 31
0.0
  0
LINE
  5
87F
  8
DATA
  6
CONTINUOUS
 62
     7
 10
-121.6284849555787
 20
28.749411267792318
 30
0.0
 11
-125.97848495557869
 21
28.749411267792318
 31
0.0
  0
LINE
  5
880
  8
DATA
  6
CONTINUOUS
 62
     7
 10
-125.97848495557869
 20
28.749411267792318
 30
0.0
 11
-126.9284849555788
 21
28.749411267792318
 31
0.0
  0
LINE
  5
881
  8
DATA
  6
CONTINUOUS
 62
     7
 10
-122.4304080325018
 20
27.049411267792301
 30
0.0
 11
-122.22848495557869
 21
28.549411267792319
 31
0.0
  0
LINE
  5
882
  8
DATA
  6
CONTINUOUS
 62
     7
 10
-126.12656187865559
 20
27.049411267792301
 30
0.0
 11
-126.3284849555787
 21
28.549411267792319
 31
0.0
  0
LINE
  5
883
  8
DATA
  6
CONTINUOUS
 62
     7
 10
-126.9284849555788
 20
28.749411267792318
 30
0.0
 11
-126.9284849555788
 21
28.549411267792319
 31
0.0
  0
LINE
  5
884
  8
DATA
  6
CONTINUOUS
 62
     7
 10
-121.6284849555787
 20
28.749411267792318
 30
0.0
 11
-121.6284849555787
 21
28.549411267792319
 31
0.0
  0
LINE
  5
885
  8
DATA
  6
CONTINUOUS
 62
     7
 10
-126.9284849555788
 20
28.549411267792319
 30
0.0
 11
-121.6384849555787
 21
28.549411267792319
 31
0.0
  0
LINE
  5
886
  8
DATA
  6
CONTINUOUS
 62
     7
 10
-122.4304080325018
 20
27.049411267792301
 30
0.0
 11
-126.12656187865559
 21
27.049411267792301
 31
0.0
  0
TEXT
  5
887
  8
DATA
 62
     7
 10
-127.82685448273401
 20
23.761532259841811
 30
0.0
 40
1.6288411458333329
  1
+4dBu
 50
180.0
 41
0.8
 11
-127.82685448273401
 21
22.13269111400848
 31
0.0
 73
     3
  0
TEXT
  5
888
  8
DATA
 62
     7
 10
-127.4295655442797
 20
28.635905050898561
 30
0.0
 40
1.6288411458333329
  1
-10dBV
 50
180.0
 41
0.8
 11
-127.4295655442797
 21
27.00706390506523
 31
0.0
 73
     3
  0
POLYLINE
  5
889
  8
DATA
  6
CONTINUOUS
 62
     7
 66
     1
 10
0.0
 20
0.0
 30
0.0
 70
     1
  0
VERTEX
  5
EE7
  8
DATA
  6
CONTINUOUS
 62
     7
 10
-137.9592396332109
 20
41.992188034270207
 30
0.0
  0
VERTEX
  5
EE8
  8
DATA
  6
CONTINUOUS
 62
     7
 10
-119.659239633211
 20
41.992188034270207
 30
0.0
  0
VERTEX
  5
EE9
  8
DATA
  6
CONTINUOUS
 62
     7
 10
-119.659239633211
 20
19.9921880342702
 30
0.0
  0
VERTEX
  5
EEA
  8
DATA
  6
CONTINUOUS
 62
     7
 10
-137.9592396332109
 20
19.9921880342702
 30
0.0
  0
SEQEND
  5
EEB
  8
DATA
  6
CONTINUOUS
 62
     7
  0
POLYLINE
  5
88F
  8
DATA
  6
CONTINUOUS
 62
     7
 66
     1
 10
0.0
 20
0.0
 30
0.0
 70
   129
  0
VERTEX
  5
EEC
  8
DATA
  6
CONTINUOUS
 62
     7
 10
-64.309239633210979
 20
9.9878286554449858
 30
0.0
 42
-0.4142135623730951
  0
VERTEX
  5
EED
  8
DATA
  6
CONTINUOUS
 62
     7
 10
-67.309239633210979
 20
6.9878286554449849
 30
0.0
  0
VERTEX
  5
EEE
  8
DATA
  6
CONTINUOUS
 62
     7
 10
-190.30923963321101
 20
6.9878286554449849
 30
0.0
 42
-0.4142135623730951
  0
VERTEX
  5
EEF
  8
DATA
  6
CONTINUOUS
 62
     7
 10
-193.30923963321101
 20
9.9878286554449858
 30
0.0
  0
VERTEX
  5
EF0
  8
DATA
  6
CONTINUOUS
 62
     7
 10
-193.30923963321101
 20
38.987828655444993
 30
0.0
 42
-0.4142135623730951
  0
VERTEX
  5
EF1
  8
DATA
  6
CONTINUOUS
 62
     7
 10
-190.30923963321101
 20
41.987828655444979
 30
0.0
  0
VERTEX
  5
EF2
  8
DATA
  6
CONTINUOUS
 62
     7
 10
-67.309239633210979
 20
41.987828655444979
 30
0.0
 42
-0.4142135623730951
  0
VERTEX
  5
EF3
  8
DATA
  6
CONTINUOUS
 62
     7
 10
-64.309239633210979
 20
38.987828655444993
 30
0.0
  0
SEQEND
  5
EF4
  8
DATA
  6
CONTINUOUS
 62
     7
  0
TEXT
  5
899
  8
DATA
 62
     7
 10
-122.22026794862509
 20
10.76620743553128
 30
0.0
 40
2.30859375
  1
CHANNEL 2
 50
180.0
 41
0.8
 11
-122.22026794862509
 21
8.4576136855312871
 31
0.0
 73
     3
  0
LINE
  5
89A
  8
DATA
  6
CONTINUOUS
 62
     7
 10
-115.80923963321101
 20
12.01753040080807
 30
0.0
 11
-141.80923963321089
 21
12.01753040080807
 31
0.0
  0
LINE
  5
89B
  8
DATA
  6
CONTINUOUS
 62
     7
 10
-141.80923963321089
 20
12.01753040080807
 30
0.0
 11
-141.80923963321089
 21
6.9878286554449849
 31
0.0
  0
LINE
  5
89C
  8
DATA
  6
CONTINUOUS
 62
     7
 10
-115.80923963321101
 20
12.01753040080807
 30
0.0
 11
-115.80923963321101
 21
6.9378286554449806
 31
0.0
  0
LINE
  5
89D
  8
DATA
  6
CONTINUOUS
 62
     7
 10
-246.6025840466387
 20
12.01753040080807
 30
0.0
 11
-272.6025840466387
 21
12.01753040080807
 31
0.0
  0
LINE
  5
89E
  8
DATA
  6
CONTINUOUS
 62
     7
 10
-246.6025840466387
 20
12.01753040080807
 30
0.0
 11
-246.6025840466387
 21
6.9878286554449849
 31
0.0
  0
LINE
  5
89F
  8
DATA
  6
CONTINUOUS
 62
     7
 10
-272.6025840466387
 20
12.01753040080807
 30
0.0
 11
-272.6025840466387
 21
6.9878286554449849
 31
0.0
  0
LINE
  5
8A0
  8
DATA
  6
CONTINUOUS
 62
     7
 10
-185.38521117639101
 20
-126.53946563968221
 30
0.0
 11
-175.58521117639111
 21
-126.53946563968221
 31
0.0
  0
LINE
  5
8A1
  8
DATA
  6
CONTINUOUS
 62
     7
 10
-185.38521117639101
 20
-126.3394656396821
 30
0.0
 11
-175.58521117639111
 21
-126.3394656396821
 31
0.0
  0
LINE
  5
8A2
  8
DATA
  6
CONTINUOUS
 62
     7
 10
-185.38521117639101
 20
-126.53946563968221
 30
0.0
 11
-185.38521117639101
 21
-126.3394656396821
 31
0.0
  0
LINE
  5
8A3
  8
DATA
  6
CONTINUOUS
 62
     7
 10
-175.58521117639111
 20
-126.53946563968221
 30
0.0
 11
-175.58521117639111
 21
-126.3394656396821
 31
0.0
  0
LINE
  5
8A4
  8
DATA
  6
CONTINUOUS
 62
     7
 10
-182.88521117639101
 20
-128.5359271129085
 30
0.0
 11
-182.88521117639101
 21
-130.3463881873717
 31
0.0
  0
LINE
  5
8A5
  8
DATA
  6
CONTINUOUS
 62
     7
 10
-178.08521117639111
 20
-128.5359271129085
 30
0.0
 11
-178.08521117639111
 21
-130.3463881873717
 31
0.0
  0
LINE
  5
8A6
  8
DATA
  6
CONTINUOUS
 62
     7
 10
-224.94129757352681
 20
-283.84638818737119
 30
0.0
 11
-224.94129757352681
 21
-279.84638818737108
 31
0.0
  0
LINE
  5
8A7
  8
DATA
  6
CONTINUOUS
 62
     7
 10
-219.14129757352691
 20
-279.84638818737108
 30
0.0
 11
-219.14129757352691
 21
-283.84638818737119
 31
0.0
  0
LINE
  5
8A8
  8
DATA
  6
CONTINUOUS
 62
     7
 10
-224.94129757352681
 20
-283.84638818737119
 30
0.0
 11
-219.14129757352691
 21
-283.84638818737119
 31
0.0
  0
LINE
  5
8A9
  8
DATA
  6
CONTINUOUS
 62
     7
 10
-208.44129757352681
 20
-283.84638818737119
 30
0.0
 11
-208.44129757352681
 21
-279.84638818737108
 31
0.0
  0
LINE
  5
8AA
  8
DATA
  6
CONTINUOUS
 62
     7
 10
-202.64129757352691
 20
-279.84638818737108
 30
0.0
 11
-202.64129757352691
 21
-283.84638818737119
 31
0.0
  0
LINE
  5
8AB
  8
DATA
  6
CONTINUOUS
 62
     7
 10
-208.44129757352681
 20
-283.84638818737119
 30
0.0
 11
-202.64129757352691
 21
-283.84638818737119
 31
0.0
  0
LINE
  5
8AC
  8
DATA
  6
CONTINUOUS
 62
     7
 10
-177.4412975735269
 20
-283.84638818737119
 30
0.0
 11
-177.4412975735269
 21
-279.84638818737108
 31
0.0
  0
LINE
  5
8AD
  8
DATA
  6
CONTINUOUS
 62
     7
 10
-171.64129757352691
 20
-279.84638818737108
 30
0.0
 11
-171.64129757352691
 21
-283.84638818737119
 31
0.0
  0
LINE
  5
8AE
  8
DATA
  6
CONTINUOUS
 62
     7
 10
-177.4412975735269
 20
-283.84638818737119
 30
0.0
 11
-171.64129757352691
 21
-283.84638818737119
 31
0.0
  0
LINE
  5
8AF
  8
DATA
  6
CONTINUOUS
 62
     7
 10
-145.9412975735269
 20
-283.84638818737119
 30
0.0
 11
-145.9412975735269
 21
-279.84638818737108
 31
0.0
  0
LINE
  5
8B0
  8
DATA
  6
CONTINUOUS
 62
     7
 10
-140.14129757352691
 20
-279.84638818737108
 30
0.0
 11
-140.14129757352691
 21
-283.84638818737119
 31
0.0
  0
LINE
  5
8B1
  8
DATA
  6
CONTINUOUS
 62
     7
 10
-145.9412975735269
 20
-283.84638818737119
 30
0.0
 11
-140.14129757352691
 21
-283.84638818737119
 31
0.0
  0
POLYLINE
  5
8B2
  8
DATA
  6
CONTINUOUS
 62
     7
 66
     1
 10
0.0
 20
0.0
 30
0.0
 70
   129
  0
VERTEX
  5
EF5
  8
DATA
  6
CONTINUOUS
 62
     7
 10
217.0569666364668
 20
-433.30709929432641
 30
0.0
 42
-0.4142135623730951
  0
VERTEX
  5
EF6
  8
DATA
  6
CONTINUOUS
 62
     7
 10
217.5569666364668
 20
-432.80709929432641
 30
0.0
  0
VERTEX
  5
EF7
  8
DATA
  6
CONTINUOUS
 62
     7
 10
220.0569666364668
 20
-432.80709929432641
 30
0.0
  0
VERTEX
  5
EF8
  8
DATA
  6
CONTINUOUS
 62
     7
 10
220.0569666364668
 20
-438.50709929432639
 30
0.0
  0
VERTEX
  5
EF9
  8
DATA
  6
CONTINUOUS
 62
     7
 10
217.5569666364668
 20
-438.50709929432639
 30
0.0
 42
-0.4142135623731117
  0
VERTEX
  5
EFA
  8
DATA
  6
CONTINUOUS
 62
     7
 10
217.0569666364668
 20
-438.00709929432639
 30
0.0
  0
SEQEND
  5
EFB
  8
DATA
  6
CONTINUOUS
 62
     7
  0
LINE
  5
8BA
  8
DATA
  6
CONTINUOUS
 62
     7
 10
220.0569666364668
 20
-421.10000000000002
 30
0.0
 11
216.0569666364668
 21
-421.10000000000002
 31
0.0
  0
LINE
  5
8BB
  8
DATA
  6
CONTINUOUS
 62
     7
 10
220.0569666364668
 20
-413.89999999999998
 30
0.0
 11
216.0569666364668
 21
-413.89999999999998
 31
0.0
  0
LINE
  5
8BC
  8
DATA
  6
CONTINUOUS
 62
     7
 10
216.0569666364668
 20
-413.89999999999998
 30
0.0
 11
216.0569666364668
 21
-408.0990060237001
 31
0.0
  0
LINE
  5
8BD
  8
DATA
  6
CONTINUOUS
 62
     7
 10
216.0569666364668
 20
-421.10000000000002
 30
0.0
 11
216.0569666364668
 21
-426.89900602370011
 31
0.0
  0
LINE
  5
8BE
  8
DATA
  6
CONTINUOUS
 62
     7
 10
216.0569666364668
 20
-408.0990060237001
 30
0.0
 11
217.0569666364668
 21
-408.0990060237001
 31
0.0
  0
LINE
  5
8BF
  8
DATA
  6
CONTINUOUS
 62
     7
 10
216.0569666364668
 20
-426.89900602370011
 30
0.0
 11
220.0569666364668
 21
-426.89900602370011
 31
0.0
  0
LINE
  5
8C0
  8
DATA
  6
CONTINUOUS
 62
     7
 10
371.6137546163622
 20
-418.4287766254966
 30
0.0
 11
370.55696663646751
 21
-418.4287766254966
 31
0.0
  0
LINE
  5
8C1
  8
DATA
  6
CONTINUOUS
 62
     7
 10
371.6137546163622
 20
-425.92877662549648
 30
0.0
 11
370.55696663646751
 21
-425.92877662549648
 31
0.0
  0
LINE
  5
8C2
  8
DATA
  6
CONTINUOUS
 62
     7
 10
374.1137546163622
 20
-420.6787766254966
 30
0.0
 11
374.1137546163622
 21
-431.17877662549648
 31
0.0
  0
LINE
  5
8C3
  8
DATA
  6
CONTINUOUS
 62
     7
 10
374.1137546163622
 20
-420.6787766254966
 30
0.0
 11
371.6137546163622
 21
-420.6787766254966
 31
0.0
  0
LINE
  5
8C4
  8
DATA
  6
CONTINUOUS
 62
     7
 10
374.1137546163622
 20
-431.17877662549648
 30
0.0
 11
371.6137546163622
 21
-431.17877662549648
 31
0.0
  0
LINE
  5
8C5
  8
DATA
  6
CONTINUOUS
 62
     7
 10
371.6137546163622
 20
-421.82877662549652
 30
0.0
 11
372.86375461636209
 21
-431.17877662549648
 31
0.0
  0
LINE
  5
8C6
  8
DATA
  6
CONTINUOUS
 62
     7
 10
372.86375461636209
 20
-420.6787766254966
 30
0.0
 11
374.1137546163622
 21
-428.82877662549652
 31
0.0
  0
LINE
  5
8C7
  8
DATA
  6
CONTINUOUS
 62
     7
 10
371.6137546163622
 20
-418.4287766254966
 30
0.0
 11
371.6137546163622
 21
-433.42877662549648
 31
0.0
  0
LINE
  5
8C8
  8
DATA
  6
CONTINUOUS
 62
     7
 10
371.6137546163622
 20
-433.42877662549648
 30
0.0
 11
369.05696663646762
 21
-433.42877662549648
 31
0.0
  0
LINE
  5
8C9
  8
DATA
  6
CONTINUOUS
 62
     7
 10
-295.64526583662189
 20
-127.8491217053529
 30
0.0
 11
-295.64526583662189
 21
-130.3491217053531
 31
0.0
  0
LINE
  5
8CA
  8
DATA
  6
CONTINUOUS
 62
     7
 10
-280.645265836622
 20
-127.8491217053529
 30
0.0
 11
-280.645265836622
 21
-130.3491217053531
 31
0.0
  0
LINE
  5
8CB
  8
DATA
  6
CONTINUOUS
 62
     7
 10
-288.145265836622
 20
-127.8491217053529
 30
0.0
 11
-288.145265836622
 21
-130.3491217053531
 31
0.0
  0
LINE
  5
8CC
  8
DATA
  6
CONTINUOUS
 62
     7
 10
-293.39526583662189
 20
-125.3491217053529
 30
0.0
 11
-282.89526583662189
 21
-125.3491217053529
 31
0.0
  0
LINE
  5
8CD
  8
DATA
  6
CONTINUOUS
 62
     7
 10
-293.39526583662189
 20
-125.3491217053529
 30
0.0
 11
-293.39526583662189
 21
-127.8491217053529
 31
0.0
  0
LINE
  5
8CE
  8
DATA
  6
CONTINUOUS
 62
     7
 10
-282.89526583662189
 20
-125.3491217053529
 30
0.0
 11
-282.89526583662189
 21
-127.8491217053529
 31
0.0
  0
LINE
  5
8CF
  8
DATA
  6
CONTINUOUS
 62
     7
 10
-292.24526583662191
 20
-127.8491217053529
 30
0.0
 11
-282.89526583662189
 21
-126.5991217053529
 31
0.0
  0
LINE
  5
8D0
  8
DATA
  6
CONTINUOUS
 62
     7
 10
-293.39526583662189
 20
-126.5991217053529
 30
0.0
 11
-285.24526583662191
 21
-125.3491217053529
 31
0.0
  0
LINE
  5
8D1
  8
DATA
  6
CONTINUOUS
 62
     7
 10
-295.64526583662189
 20
-127.8491217053529
 30
0.0
 11
-280.645265836622
 21
-127.8491217053529
 31
0.0
  0
LINE
  5
8D2
  8
DATA
  6
CONTINUOUS
 62
     7
 10
-313.48521117639109
 20
-126.53946563968221
 30
0.0
 11
-313.48521117639109
 21
-130.3463881873717
 31
0.0
  0
LINE
  5
8D3
  8
DATA
  6
CONTINUOUS
 62
     7
 10
-308.68521117639108
 20
-126.53946563968221
 30
0.0
 11
-308.68521117639108
 21
-130.3463881873717
 31
0.0
  0
LINE
  5
8D4
  8
DATA
  6
CONTINUOUS
 62
     7
 10
-240.7252658366219
 20
-127.8491217053529
 30
0.0
 11
-240.7252658366219
 21
-130.3491217053531
 31
0.0
  0
LINE
  5
8D5
  8
DATA
  6
CONTINUOUS
 62
     7
 10
-225.72526583662199
 20
-127.8491217053529
 30
0.0
 11
-225.72526583662199
 21
-130.3491217053531
 31
0.0
  0
LINE
  5
8D6
  8
DATA
  6
CONTINUOUS
 62
     7
 10
-233.22526583662199
 20
-127.8491217053529
 30
0.0
 11
-233.22526583662199
 21
-130.3491217053531
 31
0.0
  0
LINE
  5
8D7
  8
DATA
  6
CONTINUOUS
 62
     7
 10
-238.4752658366219
 20
-125.3491217053529
 30
0.0
 11
-227.9752658366219
 21
-125.3491217053529
 31
0.0
  0
LINE
  5
8D8
  8
DATA
  6
CONTINUOUS
 62
     7
 10
-238.4752658366219
 20
-125.3491217053529
 30
0.0
 11
-238.4752658366219
 21
-127.8491217053529
 31
0.0
  0
LINE
  5
8D9
  8
DATA
  6
CONTINUOUS
 62
     7
 10
-227.9752658366219
 20
-125.3491217053529
 30
0.0
 11
-227.9752658366219
 21
-127.8491217053529
 31
0.0
  0
LINE
  5
8DA
  8
DATA
  6
CONTINUOUS
 62
     7
 10
-237.3252658366219
 20
-127.8491217053529
 30
0.0
 11
-227.9752658366219
 21
-126.5991217053529
 31
0.0
  0
LINE
  5
8DB
  8
DATA
  6
CONTINUOUS
 62
     7
 10
-238.4752658366219
 20
-126.5991217053529
 30
0.0
 11
-230.3252658366219
 21
-125.3491217053529
 31
0.0
  0
LINE
  5
8DC
  8
DATA
  6
CONTINUOUS
 62
     7
 10
-240.7252658366219
 20
-127.8491217053529
 30
0.0
 11
-225.72526583662199
 21
-127.8491217053529
 31
0.0
  0
LINE
  5
8DD
  8
DATA
  6
CONTINUOUS
 62
     7
 10
-165.04526583662189
 20
-127.8491217053529
 30
0.0
 11
-165.04526583662189
 21
-130.3491217053531
 31
0.0
  0
LINE
  5
8DE
  8
DATA
  6
CONTINUOUS
 62
     7
 10
-150.04526583662201
 20
-127.8491217053529
 30
0.0
 11
-150.04526583662201
 21
-130.3491217053531
 31
0.0
  0
LINE
  5
8DF
  8
DATA
  6
CONTINUOUS
 62
     7
 10
-157.54526583662201
 20
-127.8491217053529
 30
0.0
 11
-157.54526583662201
 21
-130.3491217053531
 31
0.0
  0
LINE
  5
8E0
  8
DATA
  6
CONTINUOUS
 62
     7
 10
-162.79526583662201
 20
-125.3491217053529
 30
0.0
 11
-152.29526583662201
 21
-125.3491217053529
 31
0.0
  0
LINE
  5
8E1
  8
DATA
  6
CONTINUOUS
 62
     7
 10
-162.79526583662201
 20
-125.3491217053529
 30
0.0
 11
-162.79526583662201
 21
-127.8491217053529
 31
0.0
  0
LINE
  5
8E2
  8
DATA
  6
CONTINUOUS
 62
     7
 10
-152.29526583662201
 20
-125.3491217053529
 30
0.0
 11
-152.29526583662201
 21
-127.8491217053529
 31
0.0
  0
LINE
  5
8E3
  8
DATA
  6
CONTINUOUS
 62
     7
 10
-161.64526583662189
 20
-127.8491217053529
 30
0.0
 11
-152.29526583662201
 21
-126.5991217053529
 31
0.0
  0
LINE
  5
8E4
  8
DATA
  6
CONTINUOUS
 62
     7
 10
-162.79526583662201
 20
-126.5991217053529
 30
0.0
 11
-154.64526583662189
 21
-125.3491217053529
 31
0.0
  0
LINE
  5
8E5
  8
DATA
  6
CONTINUOUS
 62
     7
 10
-165.04526583662189
 20
-127.8491217053529
 30
0.0
 11
-150.04526583662201
 21
-127.8491217053529
 31
0.0
  0
LINE
  5
8E6
  8
DATA
  6
CONTINUOUS
 62
     7
 10
-182.88521117639101
 20
-126.53946563968221
 30
0.0
 11
-182.88521117639101
 21
-130.3463881873717
 31
0.0
  0
LINE
  5
8E7
  8
DATA
  6
CONTINUOUS
 62
     7
 10
-178.08521117639111
 20
-126.53946563968221
 30
0.0
 11
-178.08521117639111
 21
-130.3463881873717
 31
0.0
  0
LINE
  5
8E8
  8
DATA
  6
CONTINUOUS
 62
     7
 10
-110.12526583662191
 20
-127.8491217053529
 30
0.0
 11
-110.12526583662191
 21
-130.3491217053531
 31
0.0
  0
LINE
  5
8E9
  8
DATA
  6
CONTINUOUS
 62
     7
 10
-95.125265836621907
 20
-127.8491217053529
 30
0.0
 11
-95.125265836621907
 21
-130.3491217053531
 31
0.0
  0
LINE
  5
8EA
  8
DATA
  6
CONTINUOUS
 62
     7
 10
-102.62526583662191
 20
-127.8491217053529
 30
0.0
 11
-102.62526583662191
 21
-130.3491217053531
 31
0.0
  0
LINE
  5
8EB
  8
DATA
  6
CONTINUOUS
 62
     7
 10
-107.87526583662191
 20
-125.3491217053529
 30
0.0
 11
-97.375265836621935
 21
-125.3491217053529
 31
0.0
  0
LINE
  5
8EC
  8
DATA
  6
CONTINUOUS
 62
     7
 10
-107.87526583662191
 20
-125.3491217053529
 30
0.0
 11
-107.87526583662191
 21
-127.8491217053529
 31
0.0
  0
LINE
  5
8ED
  8
DATA
  6
CONTINUOUS
 62
     7
 10
-97.375265836621935
 20
-125.3491217053529
 30
0.0
 11
-97.375265836621935
 21
-127.8491217053529
 31
0.0
  0
LINE
  5
8EE
  8
DATA
  6
CONTINUOUS
 62
     7
 10
-106.7252658366219
 20
-127.8491217053529
 30
0.0
 11
-97.375265836621935
 21
-126.5991217053529
 31
0.0
  0
LINE
  5
8EF
  8
DATA
  6
CONTINUOUS
 62
     7
 10
-107.87526583662191
 20
-126.5991217053529
 30
0.0
 11
-99.725265836621915
 21
-125.3491217053529
 31
0.0
  0
LINE
  5
8F0
  8
DATA
  6
CONTINUOUS
 62
     7
 10
-110.12526583662191
 20
-127.8491217053529
 30
0.0
 11
-95.125265836621907
 21
-127.8491217053529
 31
0.0
  0
POLYLINE
  5
8F1
  8
DATA
  6
CONTINUOUS
 62
     7
 66
     1
 10
0.0
 20
0.0
 30
0.0
 70
   129
  0
VERTEX
  5
EFC
  8
DATA
  6
CONTINUOUS
 62
     7
 10
-225.55000000000001
 20
-416.4500000000001
 30
0.0
 42
-0.4142135623730951
  0
VERTEX
  5
EFD
  8
DATA
  6
CONTINUOUS
 62
     7
 10
-224.75
 20
-415.64999999999992
 30
0.0
  0
VERTEX
  5
EFE
  8
DATA
  6
CONTINUOUS
 62
     7
 10
-218.65000000000001
 20
-415.64999999999992
 30
0.0
 42
-0.4142135623731054
  0
VERTEX
  5
EFF
  8
DATA
  6
CONTINUOUS
 62
     7
 10
-217.84999999999999
 20
-416.4500000000001
 30
0.0
  0
VERTEX
  5
F00
  8
DATA
  6
CONTINUOUS
 62
     7
 10
-217.84999999999999
 20
-418.85000000000002
 30
0.0
 42
-0.4142135623730743
  0
VERTEX
  5
F01
  8
DATA
  6
CONTINUOUS
 62
     7
 10
-218.65000000000001
 20
-419.64999999999992
 30
0.0
  0
VERTEX
  5
F02
  8
DATA
  6
CONTINUOUS
 62
     7
 10
-224.75
 20
-419.64999999999992
 30
0.0
 42
-0.4142135623731054
  0
VERTEX
  5
F03
  8
DATA
  6
CONTINUOUS
 62
     7
 10
-225.55000000000001
 20
-418.85000000000002
 30
0.0
  0
SEQEND
  5
F04
  8
DATA
  6
CONTINUOUS
 62
     7
  0
LINE
  5
8FB
  8
DATA
  6
CONTINUOUS
 62
     7
 10
-331.70118038183449
 20
39.993914327722493
 30
0.0
 11
-331.70118038183449
 21
44.993914327722493
 31
0.0
  0
LINE
  5
8FC
  8
DATA
  6
CONTINUOUS
 62
     7
 10
95.698819618164677
 20
39.993914327722493
 30
0.0
 11
95.698819618164677
 21
44.993914327722493
 31
0.0
  0
TEXT
  5
8FD
  8
DATA
 62
     7
 10
218.881030490656
 20
-593.45679290819146
 30
0.0
 40
12.21630859375
  1
AFS　224
 41
0.8
 11
218.881030490656
 21
-581.24048431444146
 31
0.0
 73
     3
  0
TEXT
  5
8FE
  8
DATA
 62
     7
 10
218.21813528683279
 20
-573.21930226096015
 30
0.0
 40
9.5015733506944446
  1
ハウリング・サプレッサ
 41
0.8
 11
218.21813528683279
 21
-563.71772891026558
 31
0.0
 73
     3
  0
ENDSEC
  0
EOF
